  0
SECTION
  2
HEADER
  9
$ACADVER
  1
AC1015
  9
$ACADMAINTVER
 70
     6
  9
$DWGCODEPAGE
  3
ANSI_1252
  9
$INSBASE
 10
0.0
 20
0.0
 30
0.0
  9
$EXTMIN
 10
-70.0
 20
-15.6854414449
 30
0.0
  9
$EXTMAX
 10
70.0
 20
91.6145585551
 30
0.0
  9
$LIMMIN
 10
0.0
 20
0.0
  9
$LIMMAX
 10
420.0
 20
297.0
  9
$ORTHOMODE
 70
     0
  9
$REGENMODE
 70
     1
  9
$FILLMODE
 70
     1
  9
$QTEXTMODE
 70
     0
  9
$MIRRTEXT
 70
     1
  9
$LTSCALE
 40
1.0
  9
$ATTMODE
 70
     1
  9
$TEXTSIZE
 40
3.5
  9
$TRACEWID
 40
1.0
  9
$TEXTSTYLE
  7
Standard
  9
$CLAYER
  8
0
  9
$CELTYPE
  6
ByLayer
  9
$CECOLOR
 62
   256
  9
$CELTSCALE
 40
1.0
  9
$DISPSILH
 70
     0
  9
$DIMSCALE
 40
1.0
  9
$DIMASZ
 40
3.302
  9
$DIMEXO
 40
1.0
  9
$DIMDLI
 40
3.75
  9
$DIMRND
 40
0.0
  9
$DIMDLE
 40
0.0
  9
$DIMEXE
 40
1.0
  9
$DIMTP
 40
0.0
  9
$DIMTM
 40
0.0
  9
$DIMTXT
 40
3.5
  9
$DIMCEN
 40
2.5
  9
$DIMTSZ
 40
0.0
  9
$DIMTOL
 70
     0
  9
$DIMLIM
 70
     0
  9
$DIMTIH
 70
     1
  9
$DIMTOH
 70
     1
  9
$DIMSE1
 70
     0
  9
$DIMSE2
 70
     0
  9
$DIMTAD
 70
     1
  9
$DIMZIN
 70
     1
  9
$DIMBLK
  1

  9
$DIMASO
 70
     1
  9
$DIMSHO
 70
     1
  9
$DIMPOST
  1

  9
$DIMAPOST
  1

  9
$DIMALT
 70
     0
  9
$DIMALTD
 70
     3
  9
$DIMALTF
 40
0.0393700787
  9
$DIMLFAC
 40
1.0
  9
$DIMTOFL
 70
     1
  9
$DIMTVP
 40
0.0
  9
$DIMTIX
 70
     0
  9
$DIMSOXD
 70
     0
  9
$DIMSAH
 70
     0
  9
$DIMBLK1
  1

  9
$DIMBLK2
  1

  9
$DIMSTYLE
  2
ISO-25
  9
$DIMCLRD
 70
     0
  9
$DIMCLRE
 70
     0
  9
$DIMCLRT
 70
     0
  9
$DIMTFAC
 40
1.0
  9
$DIMGAP
 40
1.524
  9
$DIMJUST
 70
     0
  9
$DIMSD1
 70
     0
  9
$DIMSD2
 70
     0
  9
$DIMTOLJ
 70
     0
  9
$DIMTZIN
 70
     1
  9
$DIMALTZ
 70
     0
  9
$DIMALTTZ
 70
     0
  9
$DIMUPT
 70
     0
  9
$DIMDEC
 70
     2
  9
$DIMTDEC
 70
     2
  9
$DIMALTU
 70
     2
  9
$DIMALTTD
 70
     3
  9
$DIMTXSTY
  7
Standard
  9
$DIMAUNIT
 70
     0
  9
$DIMADEC
 70
     2
  9
$DIMALTRND
 40
0.0
  9
$DIMAZIN
 70
     0
  9
$DIMDSEP
 70
    44
  9
$DIMATFIT
 70
     3
  9
$DIMFRAC
 70
     0
  9
$DIMLDRBLK
  1

  9
$DIMLUNIT
 70
     2
  9
$DIMLWD
 70
    -2
  9
$DIMLWE
 70
    -2
  9
$DIMTMOVE
 70
     0
  9
$LUNITS
 70
     2
  9
$LUPREC
 70
     2
  9
$SKETCHINC
 40
1.0
  9
$FILLETRAD
 40
10.0
  9
$AUNITS
 70
     0
  9
$AUPREC
 70
     2
  9
$MENU
  1
.
  9
$ELEVATION
 40
0.0
  9
$PELEVATION
 40
0.0
  9
$THICKNESS
 40
0.0
  9
$LIMCHECK
 70
     0
  9
$CHAMFERA
 40
0.0
  9
$CHAMFERB
 40
0.0
  9
$CHAMFERC
 40
0.0
  9
$CHAMFERD
 40
0.0
  9
$SKPOLY
 70
     0
  9
$TDCREATE
 40
2460122.392136215
  9
$TDUCREATE
 40
2460122.350469549
  9
$TDUPDATE
 40
2460122.392259734
  9
$TDUUPDATE
 40
2460122.350593067
  9
$TDINDWG
 40
0.0000000116
  9
$TDUSRTIMER
 40
0.0000000116
  9
$USRTIMER
 70
     1
  9
$ANGBASE
 50
0.0
  9
$ANGDIR
 70
     0
  9
$PDMODE
 70
     0
  9
$PDSIZE
 40
-1.0
  9
$PLINEWID
 40
0.0
  9
$SPLFRAME
 70
     0
  9
$SPLINETYPE
 70
     6
  9
$SPLINESEGS
 70
     8
  9
$HANDSEED
  5
6E4
  9
$SURFTAB1
 70
     6
  9
$SURFTAB2
 70
     6
  9
$SURFTYPE
 70
     6
  9
$SURFU
 70
     6
  9
$SURFV
 70
     6
  9
$UCSBASE
  2

  9
$UCSNAME
  2

  9
$UCSORG
 10
0.0
 20
0.0
 30
0.0
  9
$UCSXDIR
 10
1.0
 20
0.0
 30
0.0
  9
$UCSYDIR
 10
0.0
 20
1.0
 30
0.0
  9
$UCSORTHOREF
  2

  9
$UCSORTHOVIEW
 70
     0
  9
$UCSORGTOP
 10
0.0
 20
0.0
 30
0.0
  9
$UCSORGBOTTOM
 10
0.0
 20
0.0
 30
0.0
  9
$UCSORGLEFT
 10
0.0
 20
0.0
 30
0.0
  9
$UCSORGRIGHT
 10
0.0
 20
0.0
 30
0.0
  9
$UCSORGFRONT
 10
0.0
 20
0.0
 30
0.0
  9
$UCSORGBACK
 10
0.0
 20
0.0
 30
0.0
  9
$PUCSBASE
  2

  9
$PUCSNAME
  2

  9
$PUCSORG
 10
0.0
 20
0.0
 30
0.0
  9
$PUCSXDIR
 10
1.0
 20
0.0
 30
0.0
  9
$PUCSYDIR
 10
0.0
 20
1.0
 30
0.0
  9
$PUCSORTHOREF
  2

  9
$PUCSORTHOVIEW
 70
     0
  9
$PUCSORGTOP
 10
0.0
 20
0.0
 30
0.0
  9
$PUCSORGBOTTOM
 10
0.0
 20
0.0
 30
0.0
  9
$PUCSORGLEFT
 10
0.0
 20
0.0
 30
0.0
  9
$PUCSORGRIGHT
 10
0.0
 20
0.0
 30
0.0
  9
$PUCSORGFRONT
 10
0.0
 20
0.0
 30
0.0
  9
$PUCSORGBACK
 10
0.0
 20
0.0
 30
0.0
  9
$USERI1
 70
     0
  9
$USERI2
 70
     0
  9
$USERI3
 70
     0
  9
$USERI4
 70
     0
  9
$USERI5
 70
     0
  9
$USERR1
 40
0.0
  9
$USERR2
 40
0.0
  9
$USERR3
 40
0.0
  9
$USERR4
 40
0.0
  9
$USERR5
 40
0.0
  9
$WORLDVIEW
 70
     1
  9
$SHADEDGE
 70
     3
  9
$SHADEDIF
 70
    70
  9
$TILEMODE
 70
     0
  9
$MAXACTVP
 70
    64
  9
$PINSBASE
 10
0.0
 20
0.0
 30
0.0
  9
$PLIMCHECK
 70
     0
  9
$PEXTMIN
 10
-70.0
 20
-15.6854414449
 30
0.0
  9
$PEXTMAX
 10
70.0
 20
91.6145585551
 30
0.0
  9
$PLIMMIN
 10
0.0
 20
0.0
  9
$PLIMMAX
 10
0.0
 20
0.0
  9
$UNITMODE
 70
     0
  9
$VISRETAIN
 70
     1
  9
$PLINEGEN
 70
     0
  9
$PSLTSCALE
 70
     1
  9
$TREEDEPTH
 70
  3020
  9
$CMLSTYLE
  2
Standard
  9
$CMLJUST
 70
     0
  9
$CMLSCALE
 40
20.0
  9
$PROXYGRAPHICS
 70
     1
  9
$MEASUREMENT
 70
     1
  9
$CELWEIGHT
370
    -1
  9
$ENDCAPS
280
     0
  9
$JOINSTYLE
280
     0
  9
$LWDISPLAY
290
     1
  9
$INSUNITS
 70
     4
  9
$HYPERLINKBASE
  1

  9
$STYLESHEET
  1

  9
$XEDIT
290
     1
  9
$CEPSNTYPE
380
     0
  9
$PSTYLEMODE
290
     1
  9
$FINGERPRINTGUID
  2
{e74a6e34-af83-4f0d-b8db-2248de426e1b}
  9
$VERSIONGUID
  2
{FAEB1C32-E019-11D5-929B-00C0DF256EC4}
  9
$EXTNAMES
290
     1
  9
$PSVPSCALE
 40
0.0
  9
$OLESTARTUP
290
     0
  0
ENDSEC
  0
SECTION
  2
CLASSES
  0
CLASS
  1
ACDBDICTIONARYWDFLT
  2
AcDbDictionaryWithDefault
  3
ObjectDBX Classes
 90
        0
280
     0
281
     0
  0
CLASS
  1
VISUALSTYLE
  2
AcDbVisualStyle
  3
ObjectDBX Classes
 90
     4095
280
     0
281
     0
  0
CLASS
  1
MATERIAL
  2
AcDbMaterial
  3
ObjectDBX Classes
 90
     1153
280
     0
281
     0
  0
CLASS
  1
SCALE
  2
AcDbScale
  3
ObjectDBX Classes
 90
     1153
280
     0
281
     0
  0
CLASS
  1
TABLESTYLE
  2
AcDbTableStyle
  3
ObjectDBX Classes
 90
     4095
280
     0
281
     0
  0
CLASS
  1
MLEADERSTYLE
  2
AcDbMLeaderStyle
  3
ACDB_MLEADERSTYLE_CLASS
 90
     4095
280
     0
281
     0
  0
CLASS
  1
SUN
  2
AcDbSun
  3
SCENEOE
 90
     1153
280
     0
281
     0
  0
CLASS
  1
ACDBPLACEHOLDER
  2
AcDbPlaceHolder
  3
ObjectDBX Classes
 90
        0
280
     0
281
     0
  0
CLASS
  1
LAYOUT
  2
AcDbLayout
  3
ObjectDBX Classes
 90
        0
280
     0
281
     0
  0
ENDSEC
  0
SECTION
  2
TABLES
  0
TABLE
  2
VPORT
  5
8
330
0
100
AcDbSymbolTable
 70
     1
  0
VPORT
  5
29
330
8
100
AcDbSymbolTableRecord
100
AcDbViewportTableRecord
  2
*Active
 70
     0
 10
0.0
 20
0.0
 11
1.0
 21
1.0
 12
0.0
 22
37.9645585551
 13
0.0
 23
0.0
 14
10.0
 24
10.0
 15
10.0
 25
10.0
 16
0.0
 26
0.0
 36
1.0
 17
0.0
 27
0.0
 37
0.0
 40
109.446
 41
1.3047530289
 42
50.0
 43
0.0
 44
0.0
 50
0.0
 51
0.0
 71
     0
 72
   100
 73
     1
 74
     3
 75
     0
 76
     0
 77
     0
 78
     0
281
     0
 65
     1
110
0.0
120
0.0
130
0.0
111
1.0
121
0.0
131
0.0
112
0.0
122
1.0
132
0.0
 79
     0
146
0.0
  0
ENDTAB
  0
TABLE
  2
LTYPE
  5
5
330
0
100
AcDbSymbolTable
 70
     6
  0
LTYPE
  5
14
330
5
100
AcDbSymbolTableRecord
100
AcDbLinetypeTableRecord
  2
ByBlock
 70
     0
  3

 72
    65
 73
     0
 40
0.0
  0
LTYPE
  5
15
330
5
100
AcDbSymbolTableRecord
100
AcDbLinetypeTableRecord
  2
ByLayer
 70
     0
  3

 72
    65
 73
     0
 40
0.0
  0
LTYPE
  5
16
330
5
100
AcDbSymbolTableRecord
100
AcDbLinetypeTableRecord
  2
Continuous
 70
     0
  3
Solid line
 72
    65
 73
     0
 40
0.0
  0
LTYPE
  5
6E
330
5
100
AcDbSymbolTableRecord
100
AcDbLinetypeTableRecord
  2
HIDDEN
 70
     0
  3
Hidden __ __ __ __ __ __ __ __ __ __ __ __ __ __
 72
    65
 73
     2
 40
1.905
 49
1.27
 74
     0
 49
-0.635
 74
     0
  0
LTYPE
  5
6F
330
5
100
AcDbSymbolTableRecord
100
AcDbLinetypeTableRecord
  2
PHANTOM
 70
     0
  3
Phantom ______  __  __  ______  __  __  ______
 72
    65
 73
     6
 40
12.7
 49
6.35
 74
     0
 49
-1.27
 74
     0
 49
1.27
 74
     0
 49
-1.27
 74
     0
 49
1.27
 74
     0
 49
-1.27
 74
     0
  0
LTYPE
  5
70
330
5
100
AcDbSymbolTableRecord
100
AcDbLinetypeTableRecord
  2
CENTER
 70
     0
  3
Center ____ _ ____ _ ____ _ ____ _ ____ _ ____
 72
    65
 73
     4
 40
10.16
 49
6.35
 74
     0
 49
-1.27
 74
     0
 49
1.27
 74
     0
 49
-1.27
 74
     0
  0
LTYPE
  5
71
330
5
100
AcDbSymbolTableRecord
100
AcDbLinetypeTableRecord
  2
CENTERX2
 70
     0
  3
Center (2x) ________  __  ________  __  _____
 72
    65
 73
     4
 40
20.32
 49
12.7
 74
     0
 49
-2.54
 74
     0
 49
2.54
 74
     0
 49
-2.54
 74
     0
  0
LTYPE
  5
72
330
5
100
AcDbSymbolTableRecord
100
AcDbLinetypeTableRecord
  2
DOT2
 70
     0
  3
Dot (.5x) ........................................
 72
    65
 73
     2
 40
0.635
 49
0.0
 74
     0
 49
-0.635
 74
     0
  0
ENDTAB
  0
TABLE
  2
LAYER
  5
2
330
0
100
AcDbSymbolTable
 70
     1
  0
LAYER
  5
10
330
2
100
AcDbSymbolTableRecord
100
AcDbLayerTableRecord
  2
0
 70
     0
 62
     7
  6
Continuous
370
    -3
390
F
  0
ENDTAB
  0
TABLE
  2
STYLE
  5
3
330
0
100
AcDbSymbolTable
 70
     1
  0
STYLE
  5
11
330
3
100
AcDbSymbolTableRecord
100
AcDbTextStyleTableRecord
  2
Standard
 70
     0
 40
0.0
 41
1.0
 50
0.0
 71
     0
 42
3.5
  3
txt
  4

  0
ENDTAB
  0
TABLE
  2
VIEW
  5
6
330
0
100
AcDbSymbolTable
 70
     0
  0
ENDTAB
  0
TABLE
  2
UCS
  5
7
330
0
100
AcDbSymbolTable
 70
     0
  0
ENDTAB
  0
TABLE
  2
APPID
  5
9
330
0
100
AcDbSymbolTable
 70
     1
  0
APPID
  5
12
330
9
100
AcDbSymbolTableRecord
100
AcDbRegAppTableRecord
  2
ACAD
 70
     0
  0
ENDTAB
  0
TABLE
  2
DIMSTYLE
  5
A
330
0
100
AcDbSymbolTable
 70
     1
100
AcDbDimStyleTable
  0
DIMSTYLE
105
27
330
A
100
AcDbSymbolTableRecord
100
AcDbDimStyleTableRecord
  2
ISO-25
 70
     0
 41
2.5
 42
0.625
 43
3.75
 44
1.25
 73
     0
 74
     0
 77
     1
 78
     8
140
2.5
141
2.5
143
0.0393700787
147
0.625
171
     3
172
     1
178
     0
271
     2
272
     2
274
     3
278
    44
283
     0
284
     8
340
11
  0
ENDTAB
  0
TABLE
  2
BLOCK_RECORD
  5
1
330
0
100
AcDbSymbolTable
 70
     1
  0
BLOCK_RECORD
  5
1F
330
1
100
AcDbSymbolTableRecord
100
AcDbBlockTableRecord
  2
*Model_Space
340
22
  0
BLOCK_RECORD
  5
23
330
1
100
AcDbSymbolTableRecord
100
AcDbBlockTableRecord
  2
*Paper_Space
340
26
  0
BLOCK_RECORD
  5
1B
330
1
100
AcDbSymbolTableRecord
100
AcDbBlockTableRecord
  2
*Paper_Space0
340
1E
  0
ENDTAB
  0
ENDSEC
  0
SECTION
  2
BLOCKS
  0
BLOCK
  5
20
330
1F
100
AcDbEntity
  8
0
100
AcDbBlockBegin
  2
*Model_Space
 70
     0
 10
0.0
 20
0.0
 30
0.0
  3
*Model_Space
  1

  0
ENDBLK
  5
21
330
1F
100
AcDbEntity
  8
0
100
AcDbBlockEnd
  0
BLOCK
  5
24
330
23
100
AcDbEntity
 67
     1
  8
0
100
AcDbBlockBegin
  2
*Paper_Space
 70
     0
 10
0.0
 20
0.0
 30
0.0
  3
*Paper_Space
  1

  0
ENDBLK
  5
25
330
23
100
AcDbEntity
 67
     1
  8
0
100
AcDbBlockEnd
  0
BLOCK
  5
1C
330
1B
100
AcDbEntity
  8
0
100
AcDbBlockBegin
  2
*Paper_Space0
 70
     0
 10
0.0
 20
0.0
 30
0.0
  3
*Paper_Space0
  1

  0
LWPOLYLINE
  5
243
330
1B
100
AcDbEntity
  8
0
  6
Continuous
 62
     7
370
    25
100
AcDbPolyline
 90
        3
 70
   128
 43
0.0
 10
-6.5653641716
 20
-59.9473304804
 10
-7.8049115689
 20
-59.4957265933
 10
-8.3333925023
 20
-59.2757508129
  0
LWPOLYLINE
  5
249
330
1B
100
AcDbEntity
  8
0
  6
Continuous
 62
     7
370
    25
100
AcDbPolyline
 90
        3
 70
   128
 43
0.0
 10
18.1599310918
 20
-29.4540575224
 10
18.1865334795
 20
-29.5
 10
18.8776101499
 20
-30.8002263599
  0
LWPOLYLINE
  5
24A
330
1B
100
AcDbEntity
  8
0
  6
Continuous
 62
     7
370
    25
100
AcDbPolyline
 90
        3
 70
   128
 43
0.0
 10
20.5361092133
 20
-35.6104421205
 10
20.7862502795
 20
-37.0113883963
 10
20.9170032666
 20
-38.1347991137
  0
LWPOLYLINE
  5
2A4
330
1B
100
AcDbEntity
  8
0
  6
Continuous
 62
     7
370
    25
100
AcDbPolyline
 90
        3
 70
   128
 43
0.0
 10
-3.9861379741
 20
19.3817870791
 10
-5.9163836937
 20
19.8506475541
 10
-7.3341554021
 20
20.3223435202
  0
LWPOLYLINE
  5
2A5
330
1B
100
AcDbEntity
  8
0
  6
Continuous
 62
     7
370
    25
100
AcDbPolyline
 90
        3
 70
   128
 43
0.0
 10
-7.9125880521
 20
20.5477263458
 10
-9.6227569563
 20
21.3344555782
 10
-10.5790409465
 20
21.8593304244
  0
LWPOLYLINE
  5
2A6
330
1B
100
AcDbEntity
  8
0
  6
Continuous
 62
     7
370
    25
100
AcDbPolyline
 90
        3
 70
   128
 43
0.0
 10
4.34588163
 20
60.5453963909
 10
5.9163836937
 20
60.1493524459
 10
7.3341620276
 20
59.6776540104
  0
LWPOLYLINE
  5
2A7
330
1B
100
AcDbEntity
  8
0
  6
Continuous
 62
     7
370
    25
100
AcDbPolyline
 90
        3
 70
   128
 43
0.0
 10
7.9125850248
 20
59.4522748856
 10
9.6227569563
 20
58.6655444218
 10
10.5790409465
 20
58.1406695756
  0
SPLINE
  5
2BA
330
1B
100
AcDbEntity
  8
0
  6
Continuous
 62
     7
370
    25
100
AcDbSpline
210
0.0
220
0.0
230
1.0
 70
     8
 71
     3
 72
    31
 73
    27
 74
     0
 42
0.000000001
 43
0.00000001
 40
0.0
 40
0.0
 40
0.0
 40
0.0
 40
0.0156173649489962
 40
0.0311921537724264
 40
0.0467636561257323
 40
0.0623711035681642
 40
0.0936995292270424
 40
0.1250686384592012
 40
0.1563164836580228
 40
0.1876256378124337
 40
0.250049472647938
 40
0.3126865807284014
 40
0.3749617621629792
 40
0.4375970080564208
 40
0.4999420357707799
 40
0.562460732431361
 40
0.6250399506923253
 40
0.6873713820688686
 40
0.7500285353067863
 40
0.812340630651166
 40
0.8436872712324942
 40
0.8749881793823419
 40
0.9062683004353541
 40
0.9375224327587295
 40
0.9687512128759221
 40
0.9999999999999999
 40
0.9999999999999999
 40
0.9999999999999999
 40
0.9999999999999999
 10
3.999999999999994
 20
-21.42014246101636
 30
0.0
 10
3.99908117633724
 20
-21.42228130575048
 30
0.0
 10
3.997246033912639
 20
-21.42655316429128
 30
0.0
 10
3.982329926788701
 20
-21.43032840662945
 30
0.0
 10
3.958499489307786
 20
-21.43217554786936
 30
0.0
 10
3.913698948659509
 20
-21.43187458685668
 30
0.0
 10
3.834022819124022
 20
-21.42654203874032
 30
0.0
 10
3.701051371272781
 20
-21.41270844168027
 30
0.0
 10
3.532672156951083
 20
-21.39251798359338
 30
0.0
 10
3.26336179159224
 20
-21.35865693093196
 30
0.0
 10
2.846057500089851
 20
-21.30652197812436
 30
0.0
 10
2.237491602927045
 20
-21.24045508203874
 30
0.0
 10
1.541946699451333
 20
-21.18266313076852
 30
0.0
 10
0.7871212153054711
 20
-21.14341096443389
 30
0.0
 10
0.0001341177905375
 20
-21.12949967600686
 30
0.0
 10
-0.7866688853770154
 20
-21.143387113817
 30
0.0
 10
-1.542172294528487
 20
-21.1826780859487
 30
0.0
 10
-2.237790315677449
 20
-21.24048082417459
 30
0.0
 10
-2.846169174515926
 20
-21.30653886354874
 30
0.0
 10
-3.263305958848342
 20
-21.35864895570099
 30
0.0
 10
-3.532634331446394
 20
-21.39251451970584
 30
0.0
 10
-3.700964535239033
 20
-21.41269523985789
 30
0.0
 10
-3.833938611986551
 20
-21.42654530292934
 30
0.0
 10
-3.928885739407738
 20
-21.43283384200786
 30
0.0
 10
-3.988936953246039
 20
-21.43178479786123
 30
0.0
 10
-3.996311530568984
 20
-21.42402406836316
 30
0.0
 10
-4.000000000000018
 20
-21.42014246101637
 30
0.0
  0
SPLINE
  5
2BB
330
1B
100
AcDbEntity
  8
0
  6
Continuous
 62
     7
370
    25
100
AcDbSpline
210
0.0
220
0.0
230
1.0
 70
     8
 71
     3
 72
     8
 73
     4
 74
     0
 42
0.000000001
 43
0.00000001
 40
0.0
 40
0.0
 40
0.0
 40
0.0
 40
1.0
 40
1.0
 40
1.0
 40
1.0
 10
-20.845835355178
 20
-40.0
 30
0.0
 10
-20.84600585040027
 20
-41.46317949695325
 30
0.0
 10
-20.69130215708393
 20
-42.92618540434895
 30
0.0
 10
-20.38625246214049
 20
-44.3571880311408
 30
0.0
  0
SPLINE
  5
2BC
330
1B
100
AcDbEntity
  8
0
  6
Continuous
 62
     7
370
    25
100
AcDbSpline
210
0.0
220
0.0
230
1.0
 70
    24
 71
     3
 72
    14
 73
    10
 74
     0
 42
0.000000001
 43
0.00000001
 40
0.0
 40
0.0
 40
0.0
 40
0.0
 40
0.500000000000004
 40
0.625000000000005
 40
0.625000000000005
 40
0.6875000000000044
 40
0.6875000000000044
 40
0.750000000000004
 40
1.0
 40
1.0
 40
1.0
 40
1.0
 10
-19.25
 20
-40.0
 30
0.0
 10
-19.31448810700783
 20
-39.99999999999999
 30
0.0
 10
-19.42420417865011
 20
-39.99999999999999
 30
0.0
 10
-19.57428252642342
 20
-39.99999999999999
 30
0.0
 10
-19.62178746512995
 20
-40.00000000000001
 30
0.0
 10
-19.64132582944493
 20
-40.0
 30
0.0
 10
-19.70477802899318
 20
-39.99999999999999
 30
0.0
 10
-19.91156552825856
 20
-40.0
 30
0.0
 10
-20.35404541418277
 20
-40.0
 30
0.0
 10
-20.845835355178
 20
-40.0
 30
0.0
  0
SPLINE
  5
2BD
330
1B
100
AcDbEntity
  8
0
  6
Continuous
 62
     7
370
    25
100
AcDbSpline
210
0.0
220
0.0
230
1.0
 70
    24
 71
     3
 72
    14
 73
    10
 74
     0
 42
0.000000001
 43
0.00000001
 40
0.0
 40
0.0
 40
0.0
 40
0.0
 40
0.5000000000000056
 40
0.6250000000000054
 40
0.6250000000000054
 40
0.6875000000000054
 40
0.6875000000000054
 40
0.7500000000000053
 40
1.0
 40
1.0
 40
1.0
 40
1.0
 10
19.25
 20
-40.0
 30
0.0
 10
19.31448810700783
 20
-40.00000000000001
 30
0.0
 10
19.42420417865011
 20
-40.0
 30
0.0
 10
19.57428252642342
 20
-40.00000000000001
 30
0.0
 10
19.62178746512995
 20
-40.00000000000001
 30
0.0
 10
19.64132582944493
 20
-40.00000000000001
 30
0.0
 10
19.70477802899319
 20
-40.00000000000001
 30
0.0
 10
19.91156552825856
 20
-40.00000000000001
 30
0.0
 10
20.35404541418276
 20
-40.00000000000001
 30
0.0
 10
20.84583535517795
 20
-40.00000000000001
 30
0.0
  0
SPLINE
  5
2BE
330
1B
100
AcDbEntity
  8
0
  6
Continuous
 62
     7
370
    25
100
AcDbSpline
210
0.0
220
0.0
230
1.0
 70
     8
 71
     3
 72
     8
 73
     4
 74
     0
 42
0.000000001
 43
0.00000001
 40
0.0
 40
0.0
 40
0.0
 40
0.0
 40
1.0
 40
1.0
 40
1.0
 40
1.0
 10
20.84583535517798
 20
-40.00000000000001
 30
0.0
 10
20.84600585089925
 20
-38.53683356476004
 30
0.0
 10
20.69130492606472
 20
-37.07384071567701
 30
0.0
 10
20.38626063749923
 20
-35.64285029105621
 30
0.0
  0
SPLINE
  5
2C0
330
1B
100
AcDbEntity
  8
0
  6
Continuous
 62
     7
370
    25
100
AcDbSpline
210
0.0
220
0.0
230
1.0
 70
     8
 71
     3
 72
     8
 73
     4
 74
     0
 42
0.000000001
 43
0.00000001
 40
0.0
 40
0.0
 40
0.0
 40
0.0
 40
1.0
 40
1.0
 40
1.0
 40
1.0
 10
20.53610921334455
 20
-35.61044212048807
 30
0.0
 10
20.84422607937623
 20
-37.05193618093404
 30
0.0
 10
21.00000000000001
 20
-38.52594398700933
 30
0.0
 10
21.0
 20
-40.00000000000009
 30
0.0
  0
SPLINE
  5
2C1
330
1B
100
AcDbEntity
  8
0
  6
Continuous
 62
     7
370
    25
100
AcDbSpline
210
0.0
220
0.0
230
1.0
 70
     8
 71
     3
 72
    18
 73
    14
 74
     0
 42
0.000000001
 43
0.00000001
 40
0.0
 40
0.0
 40
0.0
 40
0.0
 40
0.1650756941812959
 40
0.3178407819488772
 40
0.4582936863135655
 40
0.5864329592731634
 40
0.702257282455595
 40
0.7524831485097225
 40
0.8027090005364285
 40
0.8529348451100467
 40
0.9031606888049132
 40
0.9533865381953656
 40
1.0
 40
1.0
 40
1.0
 40
1.0
 10
21.0
 20
-40.0
 30
0.0
 10
20.98504499202124
 20
-40.60381245216446
 30
0.0
 10
20.95625025362202
 20
-41.7664077264006
 30
0.0
 10
20.73720036067591
 20
-43.4306537703995
 30
0.0
 10
20.42850942306002
 20
-44.94119224826819
 30
0.0
 10
20.04887500544129
 20
-46.29581595239196
 30
0.0
 10
19.69335756750635
 20
-47.31183189503952
 30
0.0
 10
19.39995309750804
 20
-48.04631083566666
 30
0.0
 10
19.18217003514044
 20
-48.55248284283367
 30
0.0
 10
18.95125843270177
 20
-49.05280702295919
 30
0.0
 10
18.70701481196313
 20
-49.54673614318896
 30
0.0
 10
18.45710335152704
 20
-50.02300911455838
 30
0.0
 10
18.2821965545485
 20
-50.33092381149658
 30
0.0
 10
18.19800542183891
 20
-50.47913810368519
 30
0.0
  0
SPLINE
  5
2C2
330
1B
100
AcDbEntity
  8
0
  6
Continuous
 62
     7
370
    25
100
AcDbSpline
210
0.0
220
0.0
230
1.0
 70
     8
 71
     3
 72
    23
 73
    19
 74
     0
 42
0.000000001
 43
0.00000001
 40
0.0
 40
0.0
 40
0.0
 40
0.0
 40
0.0552712411081689
 40
0.1050824464532176
 40
0.1548936497446427
 40
0.2047048541246217
 40
0.2545160627353326
 40
0.3043272787189528
 40
0.3541385052176578
 40
0.4039497453736212
 40
0.4435196823344021
 40
0.4905113169563805
 40
0.5449239462921511
 40
0.6067567504053802
 40
0.676008794165057
 40
0.75267902817914
 40
0.9267795957520585
 40
1.0
 40
1.0
 40
1.0
 40
1.0
 10
10.60627585743593
 20
-58.11940372924289
 30
0.0
 10
10.25298865330002
 20
-58.32064597469265
 30
0.0
 10
9.581314144696812
 20
-58.7032505093043
 30
0.0
 10
8.550468342658636
 20
-59.18984880266665
 30
0.0
 10
7.535539676750755
 20
-59.61197588380497
 30
0.0
 10
6.499175781798368
 20
-59.97900223618235
 30
0.0
 10
5.445231515325446
 20
-60.29169842668139
 30
0.0
 10
4.376318028146661
 20
-60.54873245048789
 30
0.0
 10
3.295443816548813
 20
-60.74952816402906
 30
0.0
 10
2.280213829749056
 20
-60.88363388829163
 30
0.0
 10
1.280683738455141
 20
-60.96818421127
 30
0.0
 10
0.2443880612569313
 20
-61.00851478513241
 30
0.0
 10
-0.9565758035876148
 20
-60.99136536465683
 30
0.0
 10
-2.317465431522344
 20
-60.88810743832429
 30
0.0
 10
-3.831827115957154
 20
-60.67002718541687
 30
0.0
 10
-6.123411996011119
 20
-60.14293014095512
 30
0.0
 10
-8.416749498719744
 20
-59.38933937856251
 30
0.0
 10
-9.959951333564607
 20
-58.42188166735529
 30
0.0
 10
-10.41682266700474
 20
-58.13546178073648
 30
0.0
  0
SPLINE
  5
2C3
330
1B
100
AcDbEntity
  8
0
  6
Continuous
 62
     7
370
    25
100
AcDbSpline
210
0.0
220
0.0
230
1.0
 70
     8
 71
     3
 72
    16
 73
    12
 74
     0
 42
0.000000001
 43
0.00000001
 40
0.0
 40
0.0
 40
0.0
 40
0.0
 40
0.0312718159303451
 40
0.1276631470048814
 40
0.224054485509138
 40
0.3204458497114586
 40
0.4168372578801778
 40
0.4983301911211035
 40
0.6226923782502868
 40
0.7899181899897267
 40
1.0
 40
1.0
 40
1.0
 40
1.0
 10
-18.15837613115884
 20
-50.54438182251171
 30
0.0
 10
-18.19357066442371
 20
-50.48495753460656
 30
0.0
 10
-18.33724779797965
 20
-50.24236555915516
 30
0.0
 10
-18.57224590828702
 20
-49.80671885440152
 30
0.0
 10
-18.86280134864618
 20
-49.23797880440532
 30
0.0
 10
-19.1347327350378
 20
-48.66000345175697
 30
0.0
 10
-19.37613996305928
 20
-48.10437528514736
 30
0.0
 10
-19.6249103296062
 20
-47.48487642864973
 30
0.0
 10
-19.90630091824678
 20
-46.71035553373012
 30
0.0
 10
-20.24103125367555
 20
-45.65330976039949
 30
0.0
 10
-20.43056828590506
 20
-44.84156779742983
 30
0.0
 10
-20.5361009613652
 20
-44.38959648539765
 30
0.0
  0
SPLINE
  5
2C5
330
1B
100
AcDbEntity
  8
0
  6
Continuous
 62
     7
370
    25
100
AcDbSpline
210
0.0
220
0.0
230
1.0
 70
     8
 71
     3
 72
     8
 73
     4
 74
     0
 42
0.000000001
 43
0.00000001
 40
0.0
 40
0.0
 40
0.0
 40
0.0
 40
1.0
 40
1.0
 40
1.0
 40
1.0
 10
-20.5361009613652
 20
-44.38959648539764
 30
0.0
 10
-20.84422328793537
 20
-42.9480901355668
 30
0.0
 10
-20.99999999999812
 20
-41.47406917232959
 30
0.0
 10
-21.0
 20
-40.00000000002673
 30
0.0
  0
SPLINE
  5
2C6
330
1B
100
AcDbEntity
  8
0
  6
Continuous
 62
     7
370
    25
100
AcDbSpline
210
0.0
220
0.0
230
1.0
 70
     8
 71
     3
 72
    18
 73
    14
 74
     0
 42
0.000000001
 43
0.00000001
 40
0.0
 40
0.0
 40
0.0
 40
0.0
 40
0.1652569434986175
 40
0.3179933863159217
 40
0.4582076973249595
 40
0.5858983810517729
 40
0.7010640783466561
 40
0.7510778397007162
 40
0.8010915869718142
 40
0.8511053267449419
 40
0.9011190656050956
 40
0.9511328101372744
 40
1.0
 40
1.0
 40
1.0
 40
1.0
 10
-21.0
 20
-40.00000000002674
 30
0.0
 10
-20.98501332485196
 20
-39.39551882667838
 30
0.0
 10
-20.95617542261894
 20
-38.23235429508414
 30
0.0
 10
-20.73701284270003
 20
-36.56842547912871
 30
0.0
 10
-20.42881542300129
 20
-35.0604507360982
 30
0.0
 10
-20.05072465990763
 20
-33.71050422514219
 30
0.0
 10
-19.6972552091573
 20
-32.6988849334188
 30
0.0
 10
-19.40581069339264
 20
-31.96788073348726
 30
0.0
 10
-19.18934390722075
 20
-31.46367108554695
 30
0.0
 10
-18.95984569104894
 20
-30.96525375715839
 30
0.0
 10
-18.71715314380404
 20
-30.47314764773625
 30
0.0
 10
-18.46457425962489
 20
-29.99071635385848
 30
0.0
 10
-18.28633013772822
 20
-29.67610725847694
 30
0.0
 10
-18.19824147432773
 20
-29.52062670511615
 30
0.0
  0
SPLINE
  5
2C7
330
1B
100
AcDbEntity
  8
0
  6
Continuous
 62
     7
370
    25
100
AcDbSpline
210
0.0
220
0.0
230
1.0
 70
     8
 71
     3
 72
    14
 73
    10
 74
     0
 42
0.000000001
 43
0.00000001
 40
0.0
 40
0.0
 40
0.0
 40
0.0
 40
0.1594998068508287
 40
0.3137796614936771
 40
0.4680595097783121
 40
0.6223393614239032
 40
0.776619226149623
 40
0.9308991136746388
 40
1.0
 40
1.0
 40
1.0
 40
1.0
 10
-10.54113964151957
 20
-21.84485422001294
 30
0.0
 10
-10.21201931880603
 20
-21.65738166024809
 30
0.0
 10
-9.564549798367496
 20
-21.28857195756685
 30
0.0
 10
-8.558833424450603
 20
-20.81399583800024
 30
0.0
 10
-7.544250070564565
 20
-20.39149041870407
 30
0.0
 10
-6.508268423183289
 20
-20.02339618226837
 30
0.0
 10
-5.454104761363668
 20
-19.71280639459446
 30
0.0
 10
-4.58356227715111
 20
-19.49489995379268
 30
0.0
 10
-4.061496482142992
 20
-19.40146032928702
 30
0.0
 10
-3.899999999999999
 20
-19.37255559966344
 30
0.0
  0
SPLINE
  5
2C8
330
1B
100
AcDbEntity
  8
0
  6
Continuous
 62
     7
370
    25
100
AcDbSpline
210
0.0
220
0.0
230
1.0
 70
     8
 71
     3
 72
    10
 73
     6
 74
     0
 42
0.000000001
 43
0.00000001
 40
0.0
 40
0.0
 40
0.0
 40
0.0
 40
0.2132466877013133
 40
0.7660858725121571
 40
1.0
 40
1.0
 40
1.0
 40
1.0
 10
3.966682828246571
 20
-19.38554543336179
 30
0.0
 10
4.449464589883098
 20
-19.48816701290442
 30
0.0
 10
6.18385160936315
 20
-19.85683366442399
 30
0.0
 10
8.409542725741463
 20
-20.61009177586004
 30
0.0
 10
9.956692267555654
 20
-21.57715434272431
 30
0.0
 10
10.41668414748725
 20
-21.86467724605125
 30
0.0
  0
SPLINE
  5
2C9
330
1B
100
AcDbEntity
  8
0
  6
Continuous
 62
     7
370
    25
100
AcDbSpline
210
0.0
220
0.0
230
1.0
 70
     8
 71
     3
 72
    16
 73
    12
 74
     0
 42
0.000000001
 43
0.00000001
 40
0.0
 40
0.0
 40
0.0
 40
0.0
 40
0.0318920618602683
 40
0.1288171412276877
 40
0.2257422279087165
 40
0.3226673399651488
 40
0.4195924954587621
 40
0.5000766467679552
 40
0.6236433864058195
 40
0.7902870630852644
 40
1.0
 40
1.0
 40
1.0
 40
1.0
 10
18.15834737991064
 20
-29.455647034026
 30
0.0
 10
18.19423652404762
 20
-29.516252431647
 30
0.0
 10
18.33919852020485
 20
-29.76104733072596
 30
0.0
 10
18.57585171884261
 20
-30.20004180474369
 30
0.0
 10
18.86775874768491
 20
-30.77206687862634
 30
0.0
 10
19.14083923194688
 20
-31.35341491338529
 30
0.0
 10
19.38186276806436
 20
-31.90935550782544
 30
0.0
 10
19.6291480881125
 20
-32.52642754673002
 30
0.0
 10
19.90841316453382
 20
-33.29611454700839
 30
0.0
 10
20.24174870435262
 20
-34.34955303759835
 30
0.0
 10
20.43077835833117
 20
-35.15925889067016
 30
0.0
 10
20.53610921334455
 20
-35.61044212048803
 30
0.0
  0
SPLINE
  5
2DA
330
1B
100
AcDbEntity
  8
0
  6
Continuous
 62
     7
370
    25
100
AcDbSpline
210
0.0
220
0.0
230
1.0
 70
    24
 71
     3
 72
    14
 73
    10
 74
     0
 42
0.000000001
 43
0.00000001
 40
0.0
 40
0.0
 40
0.0
 40
0.0
 40
0.4999999999999973
 40
0.6249999999999971
 40
0.6249999999999971
 40
0.687499999999997
 40
0.687499999999997
 40
0.7499999999999969
 40
1.0
 40
1.0
 40
1.0
 40
1.0
 10
-7.832380041173816
 20
22.41545215563898
 30
0.0
 10
-7.858618761289207
 20
22.35654336586903
 30
0.0
 10
-7.903259694781505
 20
22.25631959905924
 30
0.0
 10
-7.964323105467844
 20
22.11922557896456
 30
0.0
 10
-7.983651766963024
 20
22.07583062480725
 30
0.0
 10
-7.991601475778496
 20
22.05798266106193
 30
0.0
 10
-8.017418709093322
 20
22.00002015515094
 30
0.0
 10
-8.101555762704255
 20
21.81112328894587
 30
0.0
 10
-8.28159060047743
 20
21.40692543314319
 30
0.0
 10
-8.48168855986968
 20
20.95768368006238
 30
0.0
  0
SPLINE
  5
2DB
330
1B
100
AcDbEntity
  8
0
  6
Continuous
 62
     7
370
    25
100
AcDbSpline
210
0.0
220
0.0
230
1.0
 70
     8
 71
     3
 72
     8
 73
     4
 74
     0
 42
0.000000001
 43
0.00000001
 40
0.0
 40
0.0
 40
0.0
 40
0.0
 40
1.0
 40
1.0
 40
1.0
 40
1.0
 10
8.481688559869696
 20
59.04231631993764
 30
0.0
 10
7.145180258703157
 20
59.63780066666268
 30
0.0
 10
5.745816924329978
 20
60.09174197457011
 30
0.0
 10
4.314516021264961
 20
60.39532612802372
 30
0.0
  0
SPLINE
  5
2DC
330
1B
100
AcDbEntity
  8
0
  6
Continuous
 62
     7
370
    25
100
AcDbSpline
210
0.0
220
0.0
230
1.0
 70
    24
 71
     3
 72
    14
 73
    10
 74
     0
 42
0.000000001
 43
0.00000001
 40
0.0
 40
0.0
 40
0.0
 40
0.0
 40
0.5000000000000011
 40
0.6249999999999999
 40
0.6249999999999999
 40
0.6874999999999993
 40
0.6874999999999993
 40
0.7499999999999987
 40
1.0
 40
1.0
 40
1.0
 40
1.0
 10
7.83238004117382
 20
57.58454784436103
 30
0.0
 10
7.858618761289212
 20
57.64345663413096
 30
0.0
 10
7.903259694781509
 20
57.74368040094078
 30
0.0
 10
7.964323105467851
 20
57.88077442103545
 30
0.0
 10
7.983651766963029
 20
57.92416937519276
 30
0.0
 10
7.991601475778505
 20
57.94201733893809
 30
0.0
 10
8.017418709093329
 20
57.99997984484908
 30
0.0
 10
8.101555762704256
 20
58.18887671105412
 30
0.0
 10
8.28159060047743
 20
58.59307456685681
 30
0.0
 10
8.481688559869683
 20
59.04231631993762
 30
0.0
  0
SPLINE
  5
2DD
330
1B
100
AcDbEntity
  8
0
  6
Continuous
 62
     7
370
    25
100
AcDbSpline
210
0.0
220
0.0
230
1.0
 70
     8
 71
     3
 72
     8
 73
     4
 74
     0
 42
0.000000001
 43
0.00000001
 40
0.0
 40
0.0
 40
0.0
 40
0.0
 40
1.0
 40
1.0
 40
1.0
 40
1.0
 10
-8.481688559869687
 20
20.95768368006237
 30
0.0
 10
-7.145168326837843
 20
20.36219401927985
 30
0.0
 10
-5.745791937476653
 20
19.90824992720574
 30
0.0
 10
-4.314477688195292
 20
19.60466574760515
 30
0.0
  0
SPLINE
  5
2DF
330
1B
100
AcDbEntity
  8
0
  6
Continuous
 62
     7
370
    25
100
AcDbSpline
210
0.0
220
0.0
230
1.0
 70
     8
 71
     3
 72
     8
 73
     4
 74
     0
 42
0.000000001
 43
0.00000001
 40
0.0
 40
0.0
 40
0.0
 40
0.0
 40
1.0
 40
1.0
 40
1.0
 40
1.0
 10
4.34588163003096
 20
60.54539639086477
 30
0.0
 10
5.78802758666109
 20
60.24034529807938
 30
0.0
 10
7.197889474231057
 20
59.7829024221975
 30
0.0
 10
8.544414590371519
 20
59.18314310293926
 30
0.0
  0
SPLINE
  5
2E0
330
1B
100
AcDbEntity
  8
0
  6
Continuous
 62
     7
370
    25
100
AcDbSpline
210
0.0
220
0.0
230
1.0
 70
     8
 71
     3
 72
     9
 73
     5
 74
     0
 42
0.000000001
 43
0.00000001
 40
0.0
 40
0.0
 40
0.0
 40
0.0
 40
0.7931488782218722
 40
1.0
 40
1.0
 40
1.0
 40
1.0
 10
8.544414590371439
 20
59.1831431029393
 30
0.0
 10
9.094300267773107
 20
58.9314033413588
 30
0.0
 10
9.78759466999736
 20
58.61401051828015
 30
0.0
 10
10.43514894213453
 20
58.21361874405368
 30
0.0
 10
10.56909626973833
 20
58.13079725640421
 30
0.0
  0
SPLINE
  5
2E1
330
1B
100
AcDbEntity
  8
0
  6
Continuous
 62
     7
370
    25
100
AcDbSpline
210
0.0
220
0.0
230
1.0
 70
     8
 71
     3
 72
    30
 73
    26
 74
     0
 42
0.000000001
 43
0.00000001
 40
0.0
 40
0.0
 40
0.0
 40
0.0
 40
0.0050640626109062
 40
0.0249039313012539
 40
0.0468782119203686
 40
0.0709868769614844
 40
0.0972298962435734
 40
0.138938709233432
 40
0.1973087920493561
 40
0.2723357046700745
 40
0.3258159813772662
 40
0.3838617490789094
 40
0.4464726869813455
 40
0.4963820202206517
 40
0.5462913514022887
 40
0.5962006836746242
 40
0.6461100201860263
 40
0.6960193640848623
 40
0.7459287185194978
 40
0.7958380866382964
 40
0.8354859764509113
 40
0.8825701845545465
 40
0.9370900066170068
 40
0.9990446210867062
 40
1.0
 40
1.0
 40
1.0
 40
1.0
 10
18.21689629297407
 20
50.44574824585538
 30
0.0
 10
18.23556772636775
 20
50.41361254696643
 30
0.0
 10
18.32738967452664
 20
50.25557634186007
 30
0.0
 10
18.49258709177299
 20
49.95372536570923
 30
0.0
 10
18.71780613705346
 20
49.52550417459789
 30
0.0
 10
18.95278478051628
 20
49.04946125647275
 30
0.0
 10
19.23603129243772
 20
48.43597551380201
 30
0.0
 10
19.59444307705723
 20
47.58063498312759
 30
0.0
 10
20.02857404384685
 20
46.37023931777937
 30
0.0
 10
20.40064326845804
 20
45.048551477652
 30
0.0
 10
20.68220677334541
 20
43.70801733230369
 30
0.0
 10
20.87149656756311
 20
42.44329412224335
 30
0.0
 10
20.97822188421726
 20
41.19510474602026
 30
0.0
 10
21.00958707226497
 20
40.00290789336263
 30
0.0
 10
20.98097594152644
 20
38.9038993569641
 30
0.0
 10
20.89491553191947
 20
37.80789977125232
 30
0.0
 10
20.75163958335027
 20
36.71790240751765
 30
0.0
 10
20.55155201241122
 20
35.63688448668133
 30
0.0
 10
20.29515616793086
 20
34.56784311994903
 30
0.0
 10
20.00469197254008
 20
33.58581847802449
 30
0.0
 10
19.67490907864294
 20
32.63856967705784
 30
0.0
 10
19.2915805798317
 20
31.67460431329107
 30
0.0
 10
18.78038879432598
 20
30.58880203905852
 30
0.0
 10
18.39060783849524
 20
29.81768847090362
 30
0.0
 10
18.14386639890861
 20
29.4274398752618
 30
0.0
 10
18.14011927455299
 20
29.42151338792378
 30
0.0
  0
SPLINE
  5
2E2
330
1B
100
AcDbEntity
  8
0
  6
Continuous
 62
     7
370
    25
100
AcDbSpline
210
0.0
220
0.0
230
1.0
 70
     8
 71
     3
 72
    30
 73
    26
 74
     0
 42
0.000000001
 43
0.00000001
 40
0.0
 40
0.0
 40
0.0
 40
0.0
 40
0.0355083403374755
 40
0.0711069806752024
 40
0.1067056234917665
 40
0.1423042717718796
 40
0.1779029285002511
 40
0.2135015966615896
 40
0.2491002792406022
 40
0.2750547278819259
 40
0.3023766709858164
 40
0.3385101408617476
 40
0.3834547622854672
 40
0.4372100676348914
 40
0.4997754972336992
 40
0.5412880872265108
 40
0.5828006646839062
 40
0.6243132374734621
 40
0.6658258134627536
 40
0.707338400519355
 40
0.7488510065108377
 40
0.7839473298853559
 40
0.8375060294996196
 40
0.9095246810089346
 40
0.9999999999999999
 40
0.9999999999999999
 40
0.9999999999999999
 40
0.9999999999999999
 10
10.51016488357788
 20
21.81935987721126
 30
0.0
 10
10.35183989046466
 20
21.72940372611493
 30
0.0
 10
10.03478727356662
 20
21.54926265962665
 30
0.0
 10
9.550273386342049
 20
21.2947854444674
 30
0.0
 10
9.059370928430724
 20
21.05192047909004
 30
0.0
 10
8.562169039728538
 20
20.82218118378572
 30
0.0
 10
8.059181024038887
 20
20.60542014618526
 30
0.0
 10
7.550703028914126
 20
20.40186649810896
 30
0.0
 10
7.083471439411702
 20
20.22881433472026
 30
0.0
 10
6.652610102789029
 20
20.08019146253741
 30
0.0
 10
6.216317573790836
 20
19.93915930717435
 30
0.0
 10
5.683500531766242
 20
19.78050428506147
 30
0.0
 10
5.015144527863878
 20
19.60291644144286
 30
0.0
 10
4.208557523902172
 20
19.4195350006214
 30
0.0
 10
3.412104841398147
 20
19.2738290059787
 30
0.0
 10
2.673020371671872
 20
19.16755092444463
 30
0.0
 10
2.038324916643345
 20
19.09590450904014
 30
0.0
 10
1.401747742370201
 20
19.04359048684286
 30
0.0
 10
0.7638735010465174
 20
19.01065967831774
 30
0.0
 10
0.1252923236905174
 20
18.99713019513316
 30
0.0
 10
-0.4804958756015611
 20
19.00275589669601
 30
0.0
 10
-1.147614388455287
 20
19.02754941750239
 30
0.0
 10
-1.969618231001081
 20
19.08564614456026
 30
0.0
 10
-3.071405271626769
 20
19.20996005080007
 30
0.0
 10
-3.890036055383713
 20
19.36710076810987
 30
0.0
 10
-4.345843006670822
 20
19.45459543933558
 30
0.0
  0
SPLINE
  5
2E4
330
1B
100
AcDbEntity
  8
0
  6
Continuous
 62
     7
370
    25
100
AcDbSpline
210
0.0
220
0.0
230
1.0
 70
     8
 71
     3
 72
     8
 73
     4
 74
     0
 42
0.000000001
 43
0.00000001
 40
0.0
 40
0.0
 40
0.0
 40
0.0
 40
1.0
 40
1.0
 40
1.0
 40
1.0
 10
-4.345843006670827
 20
19.45459543933558
 30
0.0
 10
-5.788002411212066
 20
19.75964654427851
 30
0.0
 10
-7.197877453397826
 20
20.21709222357338
 30
0.0
 10
-8.54441459034702
 20
20.81685689704982
 30
0.0
  0
SPLINE
  5
2E5
330
1B
100
AcDbEntity
  8
0
  6
Continuous
 62
     7
370
    25
100
AcDbSpline
210
0.0
220
0.0
230
1.0
 70
     8
 71
     3
 72
     9
 73
     5
 74
     0
 42
0.000000001
 43
0.00000001
 40
0.0
 40
0.0
 40
0.0
 40
0.0
 40
0.7940233744234013
 40
1.0
 40
1.0
 40
1.0
 40
1.0
 10
-8.544414590347047
 20
20.81685689704983
 30
0.0
 10
-9.09491239277586
 20
21.06887399016043
 30
0.0
 10
-9.788214152095692
 20
21.38626652699046
 30
0.0
 10
-10.43574758474378
 20
21.78669580908828
 30
0.0
 10
-10.56912433614866
 20
21.86917488139684
 30
0.0
  0
SPLINE
  5
2E6
330
1B
100
AcDbEntity
  8
0
  6
Continuous
 62
     7
370
    25
100
AcDbSpline
210
0.0
220
0.0
230
1.0
 70
     8
 71
     3
 72
    30
 73
    26
 74
     0
 42
0.000000001
 43
0.00000001
 40
0.0
 40
0.0
 40
0.0
 40
0.0
 40
0.0044820952642539
 40
0.0243682757257381
 40
0.0463783906816377
 40
0.07051241285162
 40
0.0967703123199796
 40
0.1387295844454166
 40
0.1969837753585149
 40
0.2715286476786039
 40
0.3252934320857678
 40
0.3834711830256862
 40
0.4460616009859819
 40
0.4959657304737107
 40
0.5458698579047793
 40
0.5957739864229993
 40
0.645678119172183
 40
0.6955822592961393
 40
0.7454864099386774
 40
0.7953905742436038
 40
0.8350382062797337
 40
0.8821177501751843
 40
0.9366285024859324
 40
0.9985696427645495
 40
1.0
 40
1.0
 40
1.0
 40
1.0
 10
-18.21693439942549
 20
29.55421392495597
 30
0.0
 10
-18.23347377949809
 20
29.58264843197166
 30
0.0
 10
-18.32339515559121
 20
29.73724128781961
 30
0.0
 10
-18.4869329034959
 20
30.03581895154148
 30
0.0
 10
-18.71278076226779
 20
30.46459773832706
 30
0.0
 10
-18.94824074989354
 20
30.94102460346659
 30
0.0
 10
-19.23268554003316
 20
31.55630423408254
 30
0.0
 10
-19.59182140975585
 20
32.4125322355502
 30
0.0
 10
-20.02542857410064
 20
33.62039758944584
 30
0.0
 10
-20.3976515227098
 20
34.93962113421524
 30
0.0
 10
-20.68005411192436
 20
36.279492098477
 30
0.0
 10
-20.87038344868174
 20
37.5469987267304
 30
0.0
 10
-20.97770260239902
 20
38.79591548640925
 30
0.0
 10
-21.00958170728173
 20
39.98786754564214
 30
0.0
 10
-20.98145923946163
 20
41.08677025698513
 30
0.0
 10
-20.89589851863212
 20
42.18269022398341
 30
0.0
 10
-20.75313191379677
 20
43.27263503814512
 30
0.0
 10
-20.55356169272132
 20
44.35362815976743
 30
0.0
 10
-20.2976903026155
 20
45.42267360234146
 30
0.0
 10
-20.00770949986267
 20
46.40475534277053
 30
0.0
 10
-19.67840467803661
 20
47.35208938404242
 30
0.0
 10
-19.29555429154276
 20
48.31612624542097
 30
0.0
 10
-18.78506658988466
 20
49.40204694700595
 30
0.0
 10
-18.39390231077003
 20
50.17616157468596
 30
0.0
 10
-18.14545922273161
 20
50.56934251110121
 30
0.0
 10
-18.13985161706481
 20
50.57821699283677
 30
0.0
  0
SPLINE
  5
2E7
330
1B
100
AcDbEntity
  8
0
  6
Continuous
 62
     7
370
    25
100
AcDbSpline
210
0.0
220
0.0
230
1.0
 70
     8
 71
     3
 72
    30
 73
    26
 74
     0
 42
0.000000001
 43
0.00000001
 40
0.0
 40
0.0
 40
0.0
 40
0.0
 40
0.0304678084354717
 40
0.0664624375598032
 40
0.1024570691598034
 40
0.1384517062109865
 40
0.1744463516888657
 40
0.2104410085689515
 40
0.2464356798267565
 40
0.2721238629631262
 40
0.2993754965727711
 40
0.3355057477700371
 40
0.3805142392049564
 40
0.4344004999492241
 40
0.4971639658234197
 40
0.5391081980928414
 40
0.5810524178947781
 40
0.6229966330454506
 40
0.6649408513610798
 40
0.7068850806578845
 40
0.7488293287520779
 40
0.7836587513817146
 40
0.8371321139483683
 40
0.9092469708641253
 40
0.9999999999999999
 40
0.9999999999999999
 40
0.9999999999999999
 40
0.9999999999999999
 10
-10.44560175362305
 20
58.21674872705115
 30
0.0
 10
-10.31040270700567
 20
58.29355983439329
 30
0.0
 10
-10.01547968315303
 20
58.46111548370881
 30
0.0
 10
-9.552380338913592
 20
58.70408868828761
 30
0.0
 10
-9.058454869870305
 20
58.94857271899349
 30
0.0
 10
-8.558095194750026
 20
59.17966404766108
 30
0.0
 10
-8.051894529705715
 20
59.3976400022279
 30
0.0
 10
-7.540135931766571
 20
59.60223313607324
 30
0.0
 10
-7.07252548596873
 20
59.77509575390729
 30
0.0
 10
-6.643366137076289
 20
59.92286242888974
 30
0.0
 10
-6.210772816018379
 20
60.0625345799531
 30
0.0
 10
-5.680531876809677
 20
60.22030400712668
 30
0.0
 10
-5.014428521326348
 20
60.39723292319957
 30
0.0
 10
-4.209766569041341
 20
60.58019196867313
 30
0.0
 10
-3.413337903596997
 20
60.72597829459671
 30
0.0
 10
-2.672448160305651
 20
60.83255877180484
 30
0.0
 10
-2.034226060725902
 20
60.90453091528592
 30
0.0
 10
-1.394105118041077
 20
60.95695538955253
 30
0.0
 10
-0.7526798228016738
 20
60.98978070901352
 30
0.0
 10
-0.1105503045492994
 20
61.00298860260381
 30
0.0
 10
0.4953671728213017
 20
60.99688526662278
 30
0.0
 10
1.159664633594218
 20
60.97172228229942
 30
0.0
 10
1.976387959035131
 20
60.91365085950356
 30
0.0
 10
3.074312302928275
 20
60.78953051389092
 30
0.0
 10
3.890876694394942
 20
60.6327547665085
 30
0.0
 10
4.34588163003093
 20
60.54539639086481
 30
0.0
  0
SPLINE
  5
343
330
1B
100
AcDbEntity
  8
0
  6
Continuous
 62
     8
370
    25
100
AcDbSpline
210
0.0
220
0.0
230
1.0
 70
     8
 71
     3
 72
    11
 73
     7
 74
     0
 42
0.000000001
 43
0.00000001
 40
0.0
 40
0.0
 40
0.0
 40
0.0
 40
0.2610867681543609
 40
0.5221735363087334
 40
0.7832603044631035
 40
1.0
 40
1.0
 40
1.0
 40
1.0
 10
-19.25
 20
-40.00000000000001
 30
0.0
 10
-19.21864128280155
 20
-40.8401654430521
 30
0.0
 10
-19.15592384840462
 20
-42.52049632915631
 30
0.0
 10
-18.63818609505662
 20
-44.99378988479041
 30
0.0
 10
-17.90006428208989
 20
-47.2618240996378
 30
0.0
 10
-17.18465982551454
 20
-48.62367752987821
 30
0.0
 10
-16.86015593992802
 20
-49.24140743867395
 30
0.0
  0
SPLINE
  5
344
330
1B
100
AcDbEntity
  8
0
  6
Continuous
 62
     8
370
    25
100
AcDbSpline
210
0.0
220
0.0
230
1.0
 70
     8
 71
     3
 72
    15
 73
    11
 74
     0
 42
0.000000001
 43
0.00000001
 40
0.0
 40
0.0
 40
0.0
 40
0.0
 40
0.1045790643038556
 40
0.2349985364468878
 40
0.3654180085899192
 40
0.4958374807329506
 40
0.6262569528759829
 40
0.7566764250190134
 40
0.8870958971620458
 40
1.0
 40
1.0
 40
1.0
 40
1.0
 10
-9.177547429036707
 20
-56.89164821158694
 30
0.0
 10
-8.580736635293649
 20
-57.20458680372186
 30
0.0
 10
-7.239649258016806
 20
-57.90778788549652
 30
0.0
 10
-4.993646861074418
 20
-58.64177560162519
 30
0.0
 10
-2.520537725895677
 20
-59.14144633136729
 30
0.0
 10
0.0000225632407977
 20
-59.30432056158081
 30
0.0
 10
2.520447472932124
 20
-59.14127142230952
 30
0.0
 10
4.993962746446302
 20
-58.6424752378562
 30
0.0
 10
7.28971158686629
 20
-57.88859114192441
 30
0.0
 10
8.67767677012608
 20
-57.15906443027085
 30
0.0
 10
9.321703818464936
 20
-56.82055814750722
 30
0.0
  0
SPLINE
  5
345
330
1B
100
AcDbEntity
  8
0
  6
Continuous
 62
     8
370
    25
100
AcDbSpline
210
0.0
220
0.0
230
1.0
 70
     8
 71
     3
 72
    11
 73
     7
 74
     0
 42
0.000000001
 43
0.00000001
 40
0.0
 40
0.0
 40
0.0
 40
0.0
 40
0.2109139957497107
 40
0.4739426638331377
 40
0.7369713319165667
 40
1.0
 40
1.0
 40
1.0
 40
1.0
 10
16.89164821158693
 20
-49.17754742903671
 30
0.0
 10
17.20481939391968
 20
-48.58073653868218
 30
0.0
 10
17.90854312672827
 20
-47.23964894431072
 30
0.0
 10
18.63786484535228
 20
-44.99364848549309
 30
0.0
 10
19.15600416083071
 20
-42.52053167898077
 30
0.0
 10
19.21866805361023
 20
-40.84017722632693
 30
0.0
 10
19.25
 20
-40.0
 30
0.0
  0
SPLINE
  5
346
330
1B
100
AcDbEntity
  8
0
  6
Continuous
 62
     8
370
    25
100
AcDbSpline
210
0.0
220
0.0
230
1.0
 70
     8
 71
     3
 72
    11
 73
     7
 74
     0
 42
0.000000001
 43
0.00000001
 40
0.0
 40
0.0
 40
0.0
 40
0.0
 40
0.2610867681543657
 40
0.5221735363087366
 40
0.7832603044631082
 40
1.0
 40
1.0
 40
1.0
 40
1.0
 10
19.25
 20
-40.0
 30
0.0
 10
19.21864128280154
 20
-39.15983455694789
 30
0.0
 10
19.15592384840462
 20
-37.47950367084366
 30
0.0
 10
18.63818609505662
 20
-35.00621011520954
 30
0.0
 10
17.90006428208988
 20
-32.73817590036219
 30
0.0
 10
17.18465982551453
 20
-31.37632247012177
 30
0.0
 10
16.86015593992802
 20
-30.75859256132606
 30
0.0
  0
SPLINE
  5
347
330
1B
100
AcDbEntity
  8
0
  6
Continuous
 62
     8
370
    25
100
AcDbSpline
210
0.0
220
0.0
230
1.0
 70
     8
 71
     3
 72
    10
 73
     6
 74
     0
 42
0.000000001
 43
0.00000001
 40
0.0
 40
0.0
 40
0.0
 40
0.0
 40
0.3579609912963344
 40
0.8043704504307118
 40
1.0
 40
1.0
 40
1.0
 40
1.0
 10
9.1775474290367
 20
-23.10835178841306
 30
0.0
 10
8.580263060008608
 20
-22.79792423522626
 30
0.0
 10
7.238111516594704
 20
-22.10036568316533
 30
0.0
 10
5.450025559381504
 20
-21.47326756435013
 30
0.0
 10
4.261993773083557
 20
-21.2566539009476
 30
0.0
 10
3.900000000000004
 20
-21.19065162876862
 30
0.0
  0
SPLINE
  5
348
330
1B
100
AcDbEntity
  8
0
  6
Continuous
 62
     8
370
    25
100
AcDbSpline
210
0.0
220
0.0
230
1.0
 70
     8
 71
     3
 72
    10
 73
     6
 74
     0
 42
0.000000001
 43
0.00000001
 40
0.0
 40
0.0
 40
0.0
 40
0.0
 40
0.1931908470173554
 40
0.6340354010052862
 40
1.0
 40
1.0
 40
1.0
 40
1.0
 10
-3.899999999999999
 20
-21.19065162876862
 30
0.0
 10
-4.262005022760054
 20
-21.25663129914902
 30
0.0
 10
-5.450073729508771
 20
-21.47317078543263
 30
0.0
 10
-7.260216104905704
 20
-22.10921982178593
 30
0.0
 10
-8.6231757543684
 20
-22.81823728345147
 30
0.0
 10
-9.241407438673942
 20
-23.13984406007198
 30
0.0
  0
SPLINE
  5
349
330
1B
100
AcDbEntity
  8
0
  6
Continuous
 62
     8
370
    25
100
AcDbSpline
210
0.0
220
0.0
230
1.0
 70
     8
 71
     3
 72
    11
 73
     7
 74
     0
 42
0.000000001
 43
0.00000001
 40
0.0
 40
0.0
 40
0.0
 40
0.0
 40
0.2109139957497137
 40
0.4739426638331416
 40
0.7369713319165708
 40
1.0
 40
1.0
 40
1.0
 40
1.0
 10
-16.89164821158694
 20
-30.8224525709633
 30
0.0
 10
-17.2048193939197
 20
-31.41926346131783
 30
0.0
 10
-17.90854312672828
 20
-32.7603510556893
 30
0.0
 10
-18.63786484535229
 20
-35.00635151450694
 30
0.0
 10
-19.1560041608307
 20
-37.47946832101927
 30
0.0
 10
-19.21866805361024
 20
-39.15982277367309
 30
0.0
 10
-19.25
 20
-40.0
 30
0.0
  0
SPLINE
  5
34A
330
1B
100
AcDbEntity
  8
0
  6
Continuous
 62
     8
370
    25
100
AcDbSpline
210
0.0
220
0.0
230
1.0
 70
     8
 71
     3
 72
     9
 73
     5
 74
     0
 42
0.000000001
 43
0.00000001
 40
0.0
 40
0.0
 40
0.0
 40
0.0
 40
0.5887941615510697
 40
1.0
 40
1.0
 40
1.0
 40
1.0
 10
-20.3862524621405
 20
-44.35718803114088
 30
0.0
 10
-20.06974287780022
 20
-45.60306579535231
 30
0.0
 10
-19.53218730233985
 20
-47.71904765381605
 30
0.0
 10
-18.44432874647124
 20
-49.6063428522176
 30
0.0
 10
-17.99699495689143
 20
-50.38240965667694
 30
0.0
  0
SPLINE
  5
34B
330
1B
100
AcDbEntity
  8
0
  6
Continuous
 62
     8
370
    25
100
AcDbSpline
210
0.0
220
0.0
230
1.0
 70
     8
 71
     3
 72
    14
 73
    10
 74
     0
 42
0.000000001
 43
0.00000001
 40
0.0
 40
0.0
 40
0.0
 40
0.0
 40
0.0723593611041824
 40
0.2471201437227484
 40
0.4222548410919291
 40
0.5973265888011934
 40
0.7721068685155512
 40
0.9475118021574648
 40
0.9999999999999999
 40
0.9999999999999999
 40
0.9999999999999999
 40
0.9999999999999999
 10
-10.30726214094914
 20
-58.02550003472874
 30
0.0
 10
-9.861022017679339
 20
-58.30443683866925
 30
0.0
 10
-8.337032284844124
 20
-59.25705585060471
 30
0.0
 10
-5.391028903630031
 20
-60.23238395313323
 30
0.0
 10
-1.630694431405974
 20
-60.90425742272217
 30
0.0
 10
2.212774034908501
 20
-60.85143590756608
 30
0.0
 10
5.952156549252792
 20
-60.0702182068135
 30
0.0
 10
8.74393346949059
 20
-59.07831246866434
 30
0.0
 10
10.12834710192905
 20
-58.16818472557943
 30
0.0
 10
10.44720434945558
 20
-57.95856469565641
 30
0.0
  0
SPLINE
  5
34C
330
1B
100
AcDbEntity
  8
0
  6
Continuous
 62
     8
370
    25
100
AcDbSpline
210
0.0
220
0.0
230
1.0
 70
     8
 71
     3
 72
    10
 73
     6
 74
     0
 42
0.000000001
 43
0.00000001
 40
0.0
 40
0.0
 40
0.0
 40
0.0
 40
0.2956033386596899
 40
0.6468043240498059
 40
1.0
 40
1.0
 40
1.0
 40
1.0
 10
18.05252539450671
 20
-50.33418889267521
 30
0.0
 10
18.55665104315526
 20
-49.39257560658935
 30
0.0
 10
19.65971926589168
 20
-47.33224858936228
 30
0.0
 10
20.63331039617428
 20
-43.81482764181933
 30
0.0
 10
20.77486242999156
 20
-41.27400755483679
 30
0.0
 10
20.84583886842485
 20
-40.00000000008484
 30
0.0
  0
SPLINE
  5
34D
330
1B
100
AcDbEntity
  8
0
  6
Continuous
 62
     8
370
    25
100
AcDbSpline
210
0.0
220
0.0
230
1.0
 70
     8
 71
     3
 72
     9
 73
     5
 74
     0
 42
0.000000001
 43
0.00000001
 40
0.0
 40
0.0
 40
0.0
 40
0.0
 40
0.5858746320980923
 40
0.9999999999999999
 40
0.9999999999999999
 40
0.9999999999999999
 40
0.9999999999999999
 10
20.38626063749925
 20
-35.64285029105624
 30
0.0
 10
20.07160667427691
 20
-34.40315399256901
 30
0.0
 10
19.53453961934143
 20
-32.2871786105189
 30
0.0
 10
18.44694423743924
 20
-30.39969740338618
 30
0.0
 10
17.99654339978059
 20
-29.6180435540744
 30
0.0
  0
SPLINE
  5
34E
330
1B
100
AcDbEntity
  8
0
  6
Continuous
 62
     8
370
    25
100
AcDbSpline
210
0.0
220
0.0
230
1.0
 70
     8
 71
     3
 72
    10
 73
     6
 74
     0
 42
0.000000001
 43
0.00000001
 40
0.0
 40
0.0
 40
0.0
 40
0.0
 40
0.2269161930783188
 40
0.7829080650743905
 40
1.0
 40
1.0
 40
1.0
 40
1.0
 10
10.30797039355265
 20
-21.97378911898656
 30
0.0
 10
9.865594391146569
 20
-21.69931695257505
 30
0.0
 10
8.339305167884513
 20
-20.75233088777781
 30
0.0
 10
6.146300490153223
 20
-19.94487854928422
 30
0.0
 10
4.392492089254712
 20
-19.68007431564828
 30
0.0
 10
3.899999999999999
 20
-19.60571386088023
 30
0.0
  0
SPLINE
  5
34F
330
1B
100
AcDbEntity
  8
0
  6
Continuous
 62
     8
370
    25
100
AcDbSpline
210
0.0
220
0.0
230
1.0
 70
     8
 71
     3
 72
    10
 73
     6
 74
     0
 42
0.000000001
 43
0.00000001
 40
0.0
 40
0.0
 40
0.0
 40
0.0
 40
0.2971042757618975
 40
0.8461947831048813
 40
0.9999999999999999
 40
0.9999999999999999
 40
0.9999999999999999
 40
0.9999999999999999
 10
-3.899999999999998
 20
-19.60906987405348
 30
0.0
 10
-4.578804066863328
 20
-19.72837528875376
 30
0.0
 10
-6.51213356424982
 20
-20.06817389736229
 30
0.0
 10
-8.719498943043833
 20
-20.91369568696374
 30
0.0
 10
-10.08500229124586
 20
-21.80630504117905
 30
0.0
 10
-10.38379702195627
 20
-22.00162273994086
 30
0.0
  0
SPLINE
  5
350
330
1B
100
AcDbEntity
  8
0
  6
Continuous
 62
     8
370
    25
100
AcDbSpline
210
0.0
220
0.0
230
1.0
 70
     8
 71
     3
 72
    10
 73
     6
 74
     0
 42
0.000000001
 43
0.00000001
 40
0.0
 40
0.0
 40
0.0
 40
0.0
 40
0.2953951475346062
 40
0.6486600615073445
 40
0.9999999999999999
 40
0.9999999999999999
 40
0.9999999999999999
 40
0.9999999999999999
 10
-18.0533593066196
 20
-29.6649802379262
 30
0.0
 10
-18.55675289423161
 20
-30.60614877478067
 30
0.0
 10
-19.66215803791142
 20
-32.67286668162534
 30
0.0
 10
-20.63467233912309
 20
-36.19101735244555
 30
0.0
 10
-20.77558679607309
 20
-38.73265369586434
 30
0.0
 10
-20.84585153589755
 20
-40.00000000130483
 30
0.0
  0
SPLINE
  5
351
330
1B
100
AcDbEntity
  8
0
  6
Continuous
 62
     8
370
    25
100
AcDbSpline
210
0.0
220
0.0
230
1.0
 70
     8
 71
     3
 72
    15
 73
    11
 74
     0
 42
0.000000001
 43
0.00000001
 40
0.0
 40
0.0
 40
0.0
 40
0.0
 40
0.1423085681902563
 40
0.2846171363805183
 40
0.4269257045707793
 40
0.5692342727610404
 40
0.7115428409513016
 40
0.8538514091415625
 40
0.9961599773318245
 40
1.0
 40
1.0
 40
1.0
 40
1.0
 10
-7.832380041173818
 20
22.41545215563898
 30
0.0
 10
-7.052172899967442
 20
22.10272642313889
 30
0.0
 10
-5.491758617554661
 20
21.47727495813869
 30
0.0
 10
-3.021358721284698
 20
20.93680595579594
 30
0.0
 10
-0.5085001859692698
 20
20.70027304095326
 30
0.0
 10
2.014196553828238
 20
20.80214636270201
 30
0.0
 10
4.507116977234531
 20
21.22201050103996
 30
0.0
 10
6.903033173891894
 20
21.99694781570281
 30
0.0
 10
8.492635109525292
 20
22.6444732099709
 30
0.0
 10
9.221039375436579
 20
23.10549539064345
 30
0.0
 10
9.24017804024522
 20
23.117608648896
 30
0.0
  0
SPLINE
  5
352
330
1B
100
AcDbEntity
  8
0
  6
Continuous
 62
     8
370
    25
100
AcDbSpline
210
0.0
220
0.0
230
1.0
 70
     8
 71
     3
 72
    15
 73
    11
 74
     0
 42
0.000000001
 43
0.00000001
 40
0.0
 40
0.0
 40
0.0
 40
0.0
 40
0.0840064953023456
 40
0.2150074116088694
 40
0.3460083279153918
 40
0.4770092442219156
 40
0.6080101605284399
 40
0.739011076834962
 40
0.870011993141486
 40
1.0
 40
1.0
 40
1.0
 40
1.0
 10
16.83249041454632
 20
30.73872629722956
 30
0.0
 10
17.09384518371645
 20
31.2099151689148
 30
0.0
 10
17.762760274492
 20
32.41588262792293
 30
0.0
 10
18.50182598991089
 20
34.51820313889971
 30
0.0
 10
19.06895680867374
 20
36.97606614238745
 30
0.0
 10
19.29757495311847
 20
39.49183860288786
 30
0.0
 10
19.20069889654141
 20
42.01541653472771
 30
0.0
 10
18.76876046791463
 20
44.50189826477967
 30
0.0
 10
18.03900874203515
 20
46.91644879679009
 30
0.0
 10
17.29656759019509
 20
48.41744242516717
 30
0.0
 10
16.92678773759804
 20
49.16502652833114
 30
0.0
  0
SPLINE
  5
354
330
1B
100
AcDbEntity
  8
0
  6
Continuous
 62
     8
370
    25
100
AcDbSpline
210
0.0
220
0.0
230
1.0
 70
     8
 71
     3
 72
    14
 73
    10
 74
     0
 42
0.000000001
 43
0.00000001
 40
0.0
 40
0.0
 40
0.0
 40
0.0
 40
0.1430151148831142
 40
0.2860302297662312
 40
0.4290453446493483
 40
0.5720604595324649
 40
0.7150755744155813
 40
0.8580906892986984
 40
1.0
 40
1.0
 40
1.0
 40
1.0
 10
7.832380041173818
 20
57.58454784436103
 30
0.0
 10
7.052181304978543
 20
57.89725902813635
 30
0.0
 10
5.491783832587975
 20
58.52268139568697
 30
0.0
 10
3.021257861151306
 20
59.06336862890146
 30
0.0
 10
0.5088784114693162
 20
59.29907226643162
 30
0.0
 10
-2.015608595695256
 20
59.20029782306113
 30
0.0
 10
-4.501847035266742
 20
58.76886744852247
 30
0.0
 10
-6.916461488700107
 20
58.03898223801099
 30
0.0
 10
-8.417446644843473
 20
57.29655877840849
 30
0.0
 10
-9.16502652833114
 20
56.92678773759804
 30
0.0
  0
SPLINE
  5
355
330
1B
100
AcDbEntity
  8
0
  6
Continuous
 62
     8
370
    25
100
AcDbSpline
210
0.0
220
0.0
230
1.0
 70
     8
 71
     3
 72
    15
 73
    11
 74
     0
 42
0.000000001
 43
0.00000001
 40
0.0
 40
0.0
 40
0.0
 40
0.0
 40
0.0840064953023473
 40
0.2150074116088709
 40
0.346008327915394
 40
0.4770092442219176
 40
0.608010160528441
 40
0.7390110768349645
 40
0.8700119931414882
 40
1.0
 40
1.0
 40
1.0
 40
1.0
 10
-16.83249041454632
 20
49.26127370277044
 30
0.0
 10
-17.09384518371645
 20
48.79008483108518
 30
0.0
 10
-17.76276027449199
 20
47.58411737207705
 30
0.0
 10
-18.5018259899109
 20
45.48179686110025
 30
0.0
 10
-19.06895680867374
 20
43.0239338576125
 30
0.0
 10
-19.29757495311847
 20
40.5081613971121
 30
0.0
 10
-19.2006988965414
 20
37.98458346527226
 30
0.0
 10
-18.76876046791461
 20
35.4981017352203
 30
0.0
 10
-18.03900874203515
 20
33.08355120320991
 30
0.0
 10
-17.29656759019509
 20
31.58255757483284
 30
0.0
 10
-16.92678773759804
 20
30.83497347166887
 30
0.0
  0
SPLINE
  5
357
330
1B
100
AcDbEntity
  8
0
  6
Continuous
 62
     8
370
    25
100
AcDbSpline
210
0.0
220
0.0
230
1.0
 70
     8
 71
     3
 72
    11
 73
     7
 74
     0
 42
0.000000001
 43
0.00000001
 40
0.0
 40
0.0
 40
0.0
 40
0.0
 40
0.2518977294885939
 40
0.5042403714640168
 40
0.7557185613802957
 40
1.0
 40
1.0
 40
1.0
 40
1.0
 10
4.314516021264991
 20
60.39532612802375
 30
0.0
 10
3.055096116521587
 20
60.5939755116207
 30
0.0
 10
0.5340318660169148
 20
60.99162514180748
 30
0.0
 10
-3.294699162878575
 20
60.68940536561423
 30
0.0
 10
-6.991943682919061
 20
59.80062492807344
 30
0.0
 10
-9.227189931735117
 20
58.66061079408965
 30
0.0
 10
-10.32858895235031
 20
58.09887829981869
 30
0.0
  0
SPLINE
  5
358
330
1B
100
AcDbEntity
  8
0
  6
Continuous
 62
     8
370
    25
100
AcDbSpline
210
0.0
220
0.0
230
1.0
 70
     8
 71
     3
 72
    14
 73
    10
 74
     0
 42
0.000000001
 43
0.00000001
 40
0.0
 40
0.0
 40
0.0
 40
0.0
 40
0.0271772562610665
 40
0.2033137654324128
 40
0.3784637566845477
 40
0.5544835967145988
 40
0.7299562910067744
 40
0.9056762382370671
 40
1.0
 40
1.0
 40
1.0
 40
1.0
 10
-17.99523375317394
 20
50.43253917624872
 30
0.0
 10
-18.10621651020201
 20
50.26996199850157
 30
0.0
 10
-18.93648142041565
 20
49.05371787644501
 30
0.0
 10
-19.90594330631996
 20
46.44736958998607
 30
0.0
 10
-20.7939772476665
 20
42.73235086784099
 30
0.0
 10
-20.94001706718963
 20
38.89063849673363
 30
0.0
 10
-20.36752284479753
 20
35.10830430757711
 30
0.0
 10
-19.39899954957591
 20
31.99464999137223
 30
0.0
 10
-18.39416369391527
 20
30.31380412496812
 30
0.0
 10
-18.04318385360147
 20
29.72670026073076
 30
0.0
  0
SPLINE
  5
35A
330
1B
100
AcDbEntity
  8
0
  6
Continuous
 62
     8
370
    25
100
AcDbSpline
210
0.0
220
0.0
230
1.0
 70
     8
 71
     3
 72
    11
 73
     7
 74
     0
 42
0.000000001
 43
0.00000001
 40
0.0
 40
0.0
 40
0.0
 40
0.0
 40
0.2518745823971053
 40
0.5016601999946421
 40
0.7530571762917992
 40
1.0
 40
1.0
 40
1.0
 40
1.0
 10
-4.314477688224798
 20
19.60466574761138
 30
0.0
 10
-3.048677157761864
 20
19.40537859528124
 30
0.0
 10
-0.527574229383738
 20
19.00845711260188
 30
0.0
 10
3.306984252139137
 20
19.31188478471623
 30
0.0
 10
7.022178041078824
 20
20.20921174702638
 30
0.0
 10
9.280010936341691
 20
21.36194834140685
 30
0.0
 10
10.39883714811823
 20
21.93316506863801
 30
0.0
  0
SPLINE
  5
35B
330
1B
100
AcDbEntity
  8
0
  6
Continuous
 62
     8
370
    25
100
AcDbSpline
210
0.0
220
0.0
230
1.0
 70
     8
 71
     3
 72
    14
 73
    10
 74
     0
 42
0.000000001
 43
0.00000001
 40
0.0
 40
0.0
 40
0.0
 40
0.0
 40
0.0276307730481056
 40
0.2032633805586101
 40
0.3786035863272982
 40
0.5545704471646932
 40
0.7296573247568404
 40
0.9058142025125591
 40
0.9999999999999999
 40
0.9999999999999999
 40
0.9999999999999999
 40
0.9999999999999999
 10
17.9947797204638
 20
29.56791818421901
 30
0.0
 10
18.10764468004576
 20
29.73319403922618
 30
0.0
 10
18.93792594620134
 20
30.94903150258572
 30
0.0
 10
19.90623552301859
 20
33.55677742638133
 30
0.0
 10
20.79493288053906
 20
37.26899272191595
 30
0.0
 10
20.93916068931573
 20
41.1089951547598
 30
0.0
 10
20.36809839305447
 20
44.89143582094755
 30
0.0
 10
19.39928644303701
 20
48.00445974965128
 30
0.0
 10
18.39402869428698
 20
49.68753920975819
 30
0.0
 10
18.0438028090793
 20
50.27391419122316
 30
0.0
  0
LINE
  5
35D
330
1B
100
AcDbEntity
  8
0
  6
Continuous
 62
     7
370
    25
100
AcDbLine
 10
3.9
 20
-21.4295732892
 30
0.0
 11
3.9
 21
-17.8023516187
 31
0.0
  0
LINE
  5
35E
330
1B
100
AcDbEntity
  8
0
  6
Continuous
 62
     7
370
    25
100
AcDbLine
 10
-3.9
 20
-17.8023516187
 30
0.0
 11
-3.9
 21
-21.429589277
 31
0.0
  0
LINE
  5
35F
330
1B
100
AcDbEntity
  8
0
  6
Continuous
 62
     7
370
    25
100
AcDbLine
 10
60.6602540378
 20
-71.1313505534
 30
0.0
 11
63.1602540378
 21
-71.1313505534
 31
0.0
  0
LINE
  5
360
330
1B
100
AcDbEntity
  8
0
  6
Continuous
 62
     7
370
    25
100
AcDbLine
 10
60.6602540378
 20
-71.1313505534
 30
0.0
 11
62.4280209908
 21
-72.8991175063
 31
0.0
  0
LINE
  5
361
330
1B
100
AcDbEntity
  8
0
  6
Continuous
 62
     7
370
    25
100
AcDbLine
 10
-42.8991175063
 20
-92.4280209908
 30
0.0
 11
-62.4280209908
 21
-72.8991175063
 31
0.0
  0
LINE
  5
362
330
1B
100
AcDbEntity
  8
0
  6
Continuous
 62
     7
370
    25
100
AcDbLine
 10
-62.4280209908
 20
-72.8991175063
 30
0.0
 11
-60.6602540378
 21
-71.1313505534
 31
0.0
  0
LINE
  5
363
330
1B
100
AcDbEntity
  8
0
  6
Continuous
 62
     7
370
    25
100
AcDbLine
 10
-60.6602540378
 20
-71.1313505534
 30
0.0
 11
-41.1313505534
 21
-90.6602540378
 31
0.0
  0
LINE
  5
364
330
1B
100
AcDbEntity
  8
0
  6
Continuous
 62
     7
370
    25
100
AcDbLine
 10
-42.8991175063
 20
-92.4280209908
 30
0.0
 11
-41.1313505534
 21
-90.6602540378
 31
0.0
  0
LINE
  5
365
330
1B
100
AcDbEntity
  8
0
  6
Continuous
 62
     7
370
    25
100
AcDbLine
 10
-63.1602540378
 20
-71.1313505534
 30
0.0
 11
-63.1602540378
 21
71.1313505534
 31
0.0
  0
LINE
  5
366
330
1B
100
AcDbEntity
  8
0
  6
Continuous
 62
     7
370
    25
100
AcDbLine
 10
-63.1602540378
 20
71.1313505534
 30
0.0
 11
-60.6602540378
 21
71.1313505534
 31
0.0
  0
LINE
  5
367
330
1B
100
AcDbEntity
  8
0
  6
Continuous
 62
     7
370
    25
100
AcDbLine
 10
-60.6602540378
 20
71.1313505534
 30
0.0
 11
-60.6602540378
 21
-71.1313505534
 31
0.0
  0
LINE
  5
368
330
1B
100
AcDbEntity
  8
0
  6
Continuous
 62
     7
370
    25
100
AcDbLine
 10
-63.1602540378
 20
-71.1313505534
 30
0.0
 11
-60.6602540378
 21
-71.1313505534
 31
0.0
  0
LINE
  5
369
330
1B
100
AcDbEntity
  8
0
  6
Continuous
 62
     7
370
    25
100
AcDbLine
 10
-62.4280209908
 20
72.8991175063
 30
0.0
 11
-42.8991175063
 21
92.4280209908
 31
0.0
  0
LINE
  5
36A
330
1B
100
AcDbEntity
  8
0
  6
Continuous
 62
     7
370
    25
100
AcDbLine
 10
-42.8991175063
 20
92.4280209908
 30
0.0
 11
-41.1313505534
 21
90.6602540378
 31
0.0
  0
LINE
  5
36B
330
1B
100
AcDbEntity
  8
0
  6
Continuous
 62
     7
370
    25
100
AcDbLine
 10
-41.1313505534
 20
90.6602540378
 30
0.0
 11
-60.6602540378
 21
71.1313505534
 31
0.0
  0
LINE
  5
36C
330
1B
100
AcDbEntity
  8
0
  6
Continuous
 62
     7
370
    25
100
AcDbLine
 10
-62.4280209908
 20
72.8991175063
 30
0.0
 11
-60.6602540378
 21
71.1313505534
 31
0.0
  0
LINE
  5
36D
330
1B
100
AcDbEntity
  8
0
  6
Continuous
 62
     7
370
    25
100
AcDbLine
 10
-41.1313505534
 20
90.6602540378
 30
0.0
 11
-41.1313505534
 21
93.1602540378
 31
0.0
  0
LINE
  5
36E
330
1B
100
AcDbEntity
  8
0
  6
Continuous
 62
     7
370
    25
100
AcDbLine
 10
60.6602540378
 20
-71.1313505534
 30
0.0
 11
60.6602540378
 21
71.1313505534
 31
0.0
  0
LINE
  5
36F
330
1B
100
AcDbEntity
  8
0
  6
Continuous
 62
     7
370
    25
100
AcDbLine
 10
60.6602540378
 20
71.1313505534
 30
0.0
 11
63.1602540378
 21
71.1313505534
 31
0.0
  0
LINE
  5
370
330
1B
100
AcDbEntity
  8
0
  6
Continuous
 62
     7
370
    25
100
AcDbLine
 10
63.1602540378
 20
71.1313505534
 30
0.0
 11
63.1602540378
 21
-71.1313505534
 31
0.0
  0
LINE
  5
371
330
1B
100
AcDbEntity
  8
0
  6
Continuous
 62
     7
370
    25
100
AcDbLine
 10
41.1313505534
 20
-93.1602540378
 30
0.0
 11
-41.1313505534
 21
-93.1602540378
 31
0.0
  0
LINE
  5
372
330
1B
100
AcDbEntity
  8
0
  6
Continuous
 62
     7
370
    25
100
AcDbLine
 10
-41.1313505534
 20
-93.1602540378
 30
0.0
 11
-41.1313505534
 21
-90.6602540378
 31
0.0
  0
LINE
  5
373
330
1B
100
AcDbEntity
  8
0
  6
Continuous
 62
     7
370
    25
100
AcDbLine
 10
-41.1313505534
 20
-90.6602540378
 30
0.0
 11
41.1313505534
 21
-90.6602540378
 31
0.0
  0
LINE
  5
374
330
1B
100
AcDbEntity
  8
0
  6
Continuous
 62
     7
370
    25
100
AcDbLine
 10
41.1313505534
 20
-93.1602540378
 30
0.0
 11
41.1313505534
 21
-90.6602540378
 31
0.0
  0
LINE
  5
375
330
1B
100
AcDbEntity
  8
0
  6
Continuous
 62
     7
370
    25
100
AcDbLine
 10
60.6602540378
 20
71.1313505534
 30
0.0
 11
41.1313505534
 21
90.6602540378
 31
0.0
  0
LINE
  5
376
330
1B
100
AcDbEntity
  8
0
  6
Continuous
 62
     7
370
    25
100
AcDbLine
 10
41.1313505534
 20
90.6602540378
 30
0.0
 11
42.8991175063
 21
92.4280209908
 31
0.0
  0
LINE
  5
377
330
1B
100
AcDbEntity
  8
0
  6
Continuous
 62
     7
370
    25
100
AcDbLine
 10
42.8991175063
 20
92.4280209908
 30
0.0
 11
62.4280209908
 21
72.8991175063
 31
0.0
  0
LINE
  5
378
330
1B
100
AcDbEntity
  8
0
  6
Continuous
 62
     7
370
    25
100
AcDbLine
 10
60.6602540378
 20
71.1313505534
 30
0.0
 11
62.4280209908
 21
72.8991175063
 31
0.0
  0
LINE
  5
379
330
1B
100
AcDbEntity
  8
0
  6
Continuous
 62
     7
370
    25
100
AcDbLine
 10
41.1313505534
 20
-90.6602540378
 30
0.0
 11
42.8991175063
 21
-92.4280209908
 31
0.0
  0
LINE
  5
37A
330
1B
100
AcDbEntity
  8
0
  6
Continuous
 62
     7
370
    25
100
AcDbLine
 10
41.1313505534
 20
-90.6602540378
 30
0.0
 11
60.6602540378
 21
-71.1313505534
 31
0.0
  0
LINE
  5
37B
330
1B
100
AcDbEntity
  8
0
  6
Continuous
 62
     7
370
    25
100
AcDbLine
 10
62.4280209908
 20
-72.8991175063
 30
0.0
 11
42.8991175063
 21
-92.4280209908
 31
0.0
  0
LINE
  5
37C
330
1B
100
AcDbEntity
  8
0
  6
Continuous
 62
     7
370
    25
100
AcDbLine
 10
41.1313505534
 20
90.6602540378
 30
0.0
 11
41.1313505534
 21
93.1602540378
 31
0.0
  0
LINE
  5
37D
330
1B
100
AcDbEntity
  8
0
  6
Continuous
 62
     7
370
    25
100
AcDbLine
 10
41.1313505534
 20
90.6602540378
 30
0.0
 11
-41.1313505534
 21
90.6602540378
 31
0.0
  0
LINE
  5
37E
330
1B
100
AcDbEntity
  8
0
  6
Continuous
 62
     7
370
    25
100
AcDbLine
 10
-41.1313505534
 20
93.1602540378
 30
0.0
 11
41.1313505534
 21
93.1602540378
 31
0.0
  0
LINE
  5
37F
330
1B
100
AcDbEntity
  8
0
  6
Continuous
 62
     7
370
    25
100
AcDbLine
 10
-45.6908795417
 20
-99.1679307595
 30
0.0
 11
-42.8991175063
 21
-92.4280209908
 31
0.0
  0
LINE
  5
380
330
1B
100
AcDbEntity
  8
0
  6
Continuous
 62
     7
370
    25
100
AcDbLine
 10
-41.1313505534
 20
-93.1602540378
 30
0.0
 11
-43.9231125887
 21
-99.9001638066
 31
0.0
  0
LINE
  5
381
330
1B
100
AcDbEntity
  8
0
  6
Continuous
 62
     7
370
    25
100
AcDbLine
 10
-69.9001638066
 20
-73.9231125887
 30
0.0
 11
-63.1602540378
 21
-71.1313505534
 31
0.0
  0
LINE
  5
382
330
1B
100
AcDbEntity
  8
0
  6
Continuous
 62
     7
370
    25
100
AcDbLine
 10
-62.4280209908
 20
-72.8991175063
 30
0.0
 11
-69.1679307595
 21
-75.6908795417
 31
0.0
  0
LINE
  5
383
330
1B
100
AcDbEntity
  8
0
  6
Continuous
 62
     7
370
    25
100
AcDbLine
 10
69.9001638066
 20
73.9231125887
 30
0.0
 11
63.1602540378
 21
71.1313505534
 31
0.0
  0
LINE
  5
384
330
1B
100
AcDbEntity
  8
0
  6
Continuous
 62
     7
370
    25
100
AcDbLine
 10
62.4280209908
 20
72.8991175063
 30
0.0
 11
69.1679307595
 21
75.6908795417
 31
0.0
  0
LINE
  5
385
330
1B
100
AcDbEntity
  8
0
  6
Continuous
 62
     7
370
    25
100
AcDbLine
 10
43.9231125887
 20
-99.9001638066
 30
0.0
 11
41.1313505534
 21
-93.1602540378
 31
0.0
  0
LINE
  5
386
330
1B
100
AcDbEntity
  8
0
  6
Continuous
 62
     7
370
    25
100
AcDbLine
 10
42.8991175063
 20
-92.4280209908
 30
0.0
 11
45.6908795417
 21
-99.1679307595
 31
0.0
  0
LINE
  5
387
330
1B
100
AcDbEntity
  8
0
  6
Continuous
 62
     7
370
    25
100
AcDbLine
 10
-42.8991175063
 20
92.4280209908
 30
0.0
 11
-45.6908795417
 21
99.1679307595
 31
0.0
  0
LINE
  5
388
330
1B
100
AcDbEntity
  8
0
  6
Continuous
 62
     7
370
    25
100
AcDbLine
 10
-43.9231125887
 20
99.9001638066
 30
0.0
 11
-41.1313505534
 21
93.1602540378
 31
0.0
  0
LINE
  5
389
330
1B
100
AcDbEntity
  8
0
  6
Continuous
 62
     7
370
    25
100
AcDbLine
 10
45.6908795417
 20
99.1679307595
 30
0.0
 11
42.8991175063
 21
92.4280209908
 31
0.0
  0
LINE
  5
38A
330
1B
100
AcDbEntity
  8
0
  6
Continuous
 62
     7
370
    25
100
AcDbLine
 10
41.1313505534
 20
93.1602540378
 30
0.0
 11
43.9231125887
 21
99.9001638066
 31
0.0
  0
LINE
  5
38B
330
1B
100
AcDbEntity
  8
0
  6
Continuous
 62
     7
370
    25
100
AcDbLine
 10
69.1679307595
 20
-75.6908795417
 30
0.0
 11
62.4280209908
 21
-72.8991175063
 31
0.0
  0
LINE
  5
38C
330
1B
100
AcDbEntity
  8
0
  6
Continuous
 62
     7
370
    25
100
AcDbLine
 10
63.1602540378
 20
-71.1313505534
 30
0.0
 11
69.9001638066
 21
-73.9231125887
 31
0.0
  0
LINE
  5
38D
330
1B
100
AcDbEntity
  8
0
  6
Continuous
 62
     7
370
    25
100
AcDbLine
 10
-69.1679307595
 20
75.6908795417
 30
0.0
 11
-62.4280209908
 21
72.8991175063
 31
0.0
  0
LINE
  5
38E
330
1B
100
AcDbEntity
  8
0
  6
Continuous
 62
     7
370
    25
100
AcDbLine
 10
-63.1602540378
 20
71.1313505534
 30
0.0
 11
-69.9001638066
 21
73.9231125887
 31
0.0
  0
LINE
  5
38F
330
1B
100
AcDbEntity
  8
0
  6
Continuous
 62
     7
370
    25
100
AcDbLine
 10
-68.5355339059
 20
76.4644660941
 30
0.0
 11
-46.4644660941
 21
98.5355339059
 31
0.0
  0
LINE
  5
390
330
1B
100
AcDbEntity
  8
0
  6
Continuous
 62
     7
370
    25
100
AcDbLine
 10
-46.4644660941
 20
-98.5355339059
 30
0.0
 11
-68.5355339059
 21
-76.4644660941
 31
0.0
  0
LINE
  5
391
330
1B
100
AcDbEntity
  8
0
  6
Continuous
 62
     7
370
    25
100
AcDbLine
 10
-70.0
 20
-72.9289321881
 30
0.0
 11
-70.0
 21
72.9289321881
 31
0.0
  0
LINE
  5
392
330
1B
100
AcDbEntity
  8
0
  6
Continuous
 62
     7
370
    25
100
AcDbLine
 10
70.0
 20
72.9289321881
 30
0.0
 11
70.0
 21
-72.9289321881
 31
0.0
  0
LINE
  5
393
330
1B
100
AcDbEntity
  8
0
  6
Continuous
 62
     7
370
    25
100
AcDbLine
 10
46.4644660941
 20
98.5355339059
 30
0.0
 11
68.5355339059
 21
76.4644660941
 31
0.0
  0
LINE
  5
394
330
1B
100
AcDbEntity
  8
0
  6
Continuous
 62
     7
370
    25
100
AcDbLine
 10
-42.9289321881
 20
100.0
 30
0.0
 11
42.9289321881
 21
100.0
 31
0.0
  0
LINE
  5
395
330
1B
100
AcDbEntity
  8
0
  6
Continuous
 62
     7
370
    25
100
AcDbLine
 10
42.9289321881
 20
-100.0
 30
0.0
 11
-42.9289321881
 21
-100.0
 31
0.0
  0
LINE
  5
396
330
1B
100
AcDbEntity
  8
0
  6
Continuous
 62
     7
370
    25
100
AcDbLine
 10
68.5355339059
 20
-76.4644660941
 30
0.0
 11
46.4644660941
 21
-98.5355339059
 31
0.0
  0
LINE
  5
397
330
1B
100
AcDbEntity
  8
0
  6
Continuous
 62
     7
370
    25
100
AcDbLine
 10
0.0
 20
-17.3551032044
 30
0.0
 11
0.0
 21
-21.1341572785
 31
0.0
  0
LINE
  5
398
330
1B
100
AcDbEntity
  8
0
  6
Continuous
 62
     7
370
    25
100
AcDbLine
 10
-3.6235371466
 20
-17.3551032044
 30
0.0
 11
3.6235371466
 21
-17.3551032044
 31
0.0
  0
LINE
  5
399
330
1B
100
AcDbEntity
  8
0
  6
Continuous
 62
     7
370
    25
100
AcDbLine
 10
-10.1187754866
 20
-58.4013690429
 30
0.0
 11
-10.4794905802
 21
-58.1983591892
 31
0.0
  0
LINE
  5
39A
330
1B
100
AcDbEntity
  8
0
  6
Continuous
 62
     7
370
    25
100
AcDbLine
 10
10.1141087097
 20
-21.596065502
 30
0.0
 11
10.4794905802
 21
-21.8016408108
 31
0.0
  0
LINE
  5
39B
330
1B
100
AcDbEntity
  8
0
  6
Continuous
 62
     7
370
    25
100
AcDbLine
 10
2.0723871009
 20
-31.380553155
 30
0.0
 11
-2.1038806051
 21
-31.3881861022
 31
0.0
  0
LINE
  5
39C
330
1B
100
AcDbEntity
  8
0
  6
Continuous
 62
     7
370
    25
100
AcDbLine
 10
17.3273535868
 20
-16.069721686
 30
0.0
 11
2.0723871009
 21
-31.380553155
 31
0.0
  0
LINE
  5
39D
330
1B
100
AcDbEntity
  8
0
  6
Continuous
 62
     7
370
    25
100
AcDbLine
 10
17.9439799271
 20
-16.0720004608
 30
0.0
 11
17.3273535868
 21
-16.069721686
 31
0.0
  0
LINE
  5
39E
330
1B
100
AcDbEntity
  8
0
  6
Continuous
 62
     7
370
    25
100
AcDbLine
 10
23.8656596144
 20
-21.9720735791
 30
0.0
 11
17.9439799271
 21
-16.0720004608
 31
0.0
  0
LINE
  5
39F
330
1B
100
AcDbEntity
  8
0
  6
Continuous
 62
     7
370
    25
100
AcDbLine
 10
23.8633808396
 20
-22.5886999194
 30
0.0
 11
23.8656596144
 21
-21.9720735791
 31
0.0
  0
LINE
  5
3A0
330
1B
100
AcDbEntity
  8
0
  6
Continuous
 62
     7
370
    25
100
AcDbLine
 10
8.6118138978
 20
-37.8961193949
 30
0.0
 11
23.8633808396
 21
-22.5886999194
 31
0.0
  0
LINE
  5
3A1
330
1B
100
AcDbEntity
  8
0
  6
Continuous
 62
     7
370
    25
100
AcDbLine
 10
8.619446845
 20
-42.0723871009
 30
0.0
 11
8.6118138978
 21
-37.8961193949
 31
0.0
  0
LINE
  5
3A2
330
1B
100
AcDbEntity
  8
0
  6
Continuous
 62
     7
370
    25
100
AcDbLine
 10
23.930278314
 20
-57.3273535868
 30
0.0
 11
8.619446845
 21
-42.0723871009
 31
0.0
  0
LINE
  5
3A3
330
1B
100
AcDbEntity
  8
0
  6
Continuous
 62
     7
370
    25
100
AcDbLine
 10
23.9279995392
 20
-57.9439799271
 30
0.0
 11
23.930278314
 21
-57.3273535868
 31
0.0
  0
LINE
  5
3A4
330
1B
100
AcDbEntity
  8
0
  6
Continuous
 62
     7
370
    25
100
AcDbLine
 10
18.0248968779
 20
-63.8687002518
 30
0.0
 11
23.9279995392
 21
-57.9439799271
 31
0.0
  0
LINE
  5
3A5
330
1B
100
AcDbEntity
  8
0
  6
Continuous
 62
     7
370
    25
100
AcDbLine
 10
17.4228837011
 20
-63.8664753027
 30
0.0
 11
18.0248968779
 21
-63.8687002518
 31
0.0
  0
LINE
  5
3A6
330
1B
100
AcDbEntity
  8
0
  6
Continuous
 62
     7
370
    25
100
AcDbLine
 10
2.335443404
 20
-48.6113906714
 30
0.0
 11
17.4228837011
 21
-63.8664753027
 31
0.0
  0
LINE
  5
3A7
330
1B
100
AcDbEntity
  8
0
  6
Continuous
 62
     7
370
    25
100
AcDbLine
 10
-2.0723871009
 20
-48.619446845
 30
0.0
 11
2.335443404
 21
-48.6113906714
 31
0.0
  0
LINE
  5
3A8
330
1B
100
AcDbEntity
  8
0
  6
Continuous
 62
     7
370
    25
100
AcDbLine
 10
-17.3273535868
 20
-63.930278314
 30
0.0
 11
-2.0723871009
 21
-48.619446845
 31
0.0
  0
LINE
  5
3A9
330
1B
100
AcDbEntity
  8
0
  6
Continuous
 62
     7
370
    25
100
AcDbLine
 10
-17.9439799271
 20
-63.9279995392
 30
0.0
 11
-17.3273535868
 21
-63.930278314
 31
0.0
  0
LINE
  5
3AA
330
1B
100
AcDbEntity
  8
0
  6
Continuous
 62
     7
370
    25
100
AcDbLine
 10
-23.8656596144
 20
-58.0279264209
 30
0.0
 11
-17.9439799271
 21
-63.9279995392
 31
0.0
  0
LINE
  5
3AB
330
1B
100
AcDbEntity
  8
0
  6
Continuous
 62
     7
370
    25
100
AcDbLine
 10
-23.8633808396
 20
-57.4113000806
 30
0.0
 11
-23.8656596144
 21
-58.0279264209
 31
0.0
  0
LINE
  5
3AC
330
1B
100
AcDbEntity
  8
0
  6
Continuous
 62
     7
370
    25
100
AcDbLine
 10
-8.6118138978
 20
-42.1038806051
 30
0.0
 11
-23.8633808396
 21
-57.4113000806
 31
0.0
  0
LINE
  5
3AD
330
1B
100
AcDbEntity
  8
0
  6
Continuous
 62
     7
370
    25
100
AcDbLine
 10
-8.619446845
 20
-37.9276128991
 30
0.0
 11
-8.6118138978
 21
-42.1038806051
 31
0.0
  0
LINE
  5
3AE
330
1B
100
AcDbEntity
  8
0
  6
Continuous
 62
     7
370
    25
100
AcDbLine
 10
-23.930278314
 20
-22.6726464132
 30
0.0
 11
-8.619446845
 21
-37.9276128991
 31
0.0
  0
LINE
  5
3AF
330
1B
100
AcDbEntity
  8
0
  6
Continuous
 62
     7
370
    25
100
AcDbLine
 10
-23.9279995392
 20
-22.0560200729
 30
0.0
 11
-23.930278314
 21
-22.6726464132
 31
0.0
  0
LINE
  5
3B0
330
1B
100
AcDbEntity
  8
0
  6
Continuous
 62
     7
370
    25
100
AcDbLine
 10
-18.0279264209
 20
-16.1343403856
 30
0.0
 11
-23.9279995392
 21
-22.0560200729
 31
0.0
  0
LINE
  5
3B1
330
1B
100
AcDbEntity
  8
0
  6
Continuous
 62
     7
370
    25
100
AcDbLine
 10
-17.4113000806
 20
-16.1366191604
 30
0.0
 11
-18.0279264209
 21
-16.1343403856
 31
0.0
  0
LINE
  5
3B2
330
1B
100
AcDbEntity
  8
0
  6
Continuous
 62
     7
370
    25
100
AcDbLine
 10
-2.1038806051
 20
-31.3881861022
 30
0.0
 11
-17.4113000806
 21
-16.1366191604
 31
0.0
  0
LINE
  5
3B3
330
1B
100
AcDbEntity
  8
0
  6
Continuous
 62
     7
370
    25
100
AcDbLine
 10
-9.4241837586
 20
-38.2626703146
 30
0.0
 11
-24.6641204561
 21
-23.0783399247
 31
0.0
  0
LINE
  5
3B4
330
1B
100
AcDbEntity
  8
0
  6
Continuous
 62
     7
370
    25
100
AcDbLine
 10
-24.6641204561
 20
-23.0783399247
 30
0.0
 11
-24.6648958092
 21
-23.0714074404
 31
0.0
  0
LINE
  5
3B5
330
1B
100
AcDbEntity
  8
0
  6
Continuous
 62
     7
370
    25
100
AcDbLine
 10
-24.6648958092
 20
-23.0714074404
 30
0.0
 11
-23.930278314
 21
-22.6726464132
 31
0.0
  0
LINE
  5
3B6
330
1B
100
AcDbEntity
  8
0
  6
Continuous
 62
     7
370
    25
100
AcDbLine
 10
-9.4241837586
 20
-38.2626703146
 30
0.0
 11
-8.619446845
 21
-37.9276128991
 31
0.0
  0
LINE
  5
3B7
330
1B
100
AcDbEntity
  8
0
  6
Continuous
 62
     7
370
    25
100
AcDbLine
 10
-24.5950446403
 20
-57.010804477
 30
0.0
 11
-24.5942177531
 21
-57.0037920431
 31
0.0
  0
LINE
  5
3B8
330
1B
100
AcDbEntity
  8
0
  6
Continuous
 62
     7
370
    25
100
AcDbLine
 10
-24.5942177531
 20
-57.0037920431
 30
0.0
 11
-9.417770197
 21
-41.771767047
 31
0.0
  0
LINE
  5
3B9
330
1B
100
AcDbEntity
  8
0
  6
Continuous
 62
     7
370
    25
100
AcDbLine
 10
-9.417770197
 20
-41.771767047
 30
0.0
 11
-8.6118138978
 21
-42.1038806051
 31
0.0
  0
LINE
  5
3BA
330
1B
100
AcDbEntity
  8
0
  6
Continuous
 62
     7
370
    25
100
AcDbLine
 10
-24.5950446403
 20
-57.010804477
 30
0.0
 11
-23.8633808396
 21
-57.4113000806
 31
0.0
  0
LINE
  5
3BB
330
1B
100
AcDbEntity
  8
0
  6
Continuous
 62
     7
370
    25
100
AcDbLine
 10
-24.6002771096
 20
-58.4266874481
 30
0.0
 11
-24.5950446403
 21
-57.010804477
 31
0.0
  0
LINE
  5
3BC
330
1B
100
AcDbEntity
  8
0
  6
Continuous
 62
     7
370
    25
100
AcDbLine
 10
-24.6002771096
 20
-58.4266874481
 30
0.0
 11
-23.8656596144
 21
-58.0279264209
 31
0.0
  0
LINE
  5
3BD
330
1B
100
AcDbEntity
  8
0
  6
Continuous
 62
     7
370
    25
100
AcDbLine
 10
8.6118138978
 20
-37.8961193949
 30
0.0
 11
9.417770197
 21
-38.228232953
 31
0.0
  0
LINE
  5
3BE
330
1B
100
AcDbEntity
  8
0
  6
Continuous
 62
     7
370
    25
100
AcDbLine
 10
9.417770197
 20
-38.228232953
 30
0.0
 11
9.4241837586
 21
-41.7373296854
 31
0.0
  0
LINE
  5
3BF
330
1B
100
AcDbEntity
  8
0
  6
Continuous
 62
     7
370
    25
100
AcDbLine
 10
8.619446845
 20
-42.0723871009
 30
0.0
 11
9.4241837586
 21
-41.7373296854
 31
0.0
  0
LINE
  5
3C0
330
1B
100
AcDbEntity
  8
0
  6
Continuous
 62
     7
370
    25
100
AcDbLine
 10
23.8633808396
 20
-22.5886999194
 30
0.0
 11
24.5950446403
 21
-22.989195523
 31
0.0
  0
LINE
  5
3C1
330
1B
100
AcDbEntity
  8
0
  6
Continuous
 62
     7
370
    25
100
AcDbLine
 10
24.5950446403
 20
-22.989195523
 30
0.0
 11
24.5942177531
 21
-22.9962079569
 31
0.0
  0
LINE
  5
3C2
330
1B
100
AcDbEntity
  8
0
  6
Continuous
 62
     7
370
    25
100
AcDbLine
 10
24.5942177531
 20
-22.9962079569
 30
0.0
 11
9.417770197
 21
-38.228232953
 31
0.0
  0
LINE
  5
3C3
330
1B
100
AcDbEntity
  8
0
  6
Continuous
 62
     7
370
    25
100
AcDbLine
 10
23.8656596144
 20
-21.9720735791
 30
0.0
 11
24.6002771096
 21
-21.5733125519
 31
0.0
  0
LINE
  5
3C4
330
1B
100
AcDbEntity
  8
0
  6
Continuous
 62
     7
370
    25
100
AcDbLine
 10
24.6002771096
 20
-21.5733125519
 30
0.0
 11
24.5950446403
 21
-22.989195523
 31
0.0
  0
LINE
  5
3C5
330
1B
100
AcDbEntity
  8
0
  6
Continuous
 62
     7
370
    25
100
AcDbLine
 10
23.930278314
 20
-57.3273535868
 30
0.0
 11
24.6648958092
 21
-56.9285925596
 31
0.0
  0
LINE
  5
3C6
330
1B
100
AcDbEntity
  8
0
  6
Continuous
 62
     7
370
    25
100
AcDbLine
 10
24.6648958092
 20
-56.9285925596
 30
0.0
 11
24.6596633399
 21
-58.3444755307
 31
0.0
  0
LINE
  5
3C7
330
1B
100
AcDbEntity
  8
0
  6
Continuous
 62
     7
370
    25
100
AcDbLine
 10
23.9279995392
 20
-57.9439799271
 30
0.0
 11
24.6596633399
 21
-58.3444755307
 31
0.0
  0
LINE
  5
3C8
330
1B
100
AcDbEntity
  8
0
  6
Continuous
 62
     7
370
    25
100
AcDbLine
 10
9.4241837586
 20
-41.7373296854
 30
0.0
 11
24.6641204561
 21
-56.9216600753
 31
0.0
  0
LINE
  5
3C9
330
1B
100
AcDbEntity
  8
0
  6
Continuous
 62
     7
370
    25
100
AcDbLine
 10
24.6641204561
 20
-56.9216600753
 30
0.0
 11
24.6648958092
 21
-56.9285925596
 31
0.0
  0
LINE
  5
3CA
330
1B
100
AcDbEntity
  8
0
  6
Continuous
 62
     7
370
    25
100
AcDbLine
 10
-16.9285925596
 20
-64.6648958092
 30
0.0
 11
-18.3444755307
 21
-64.6596633399
 31
0.0
  0
LINE
  5
3CB
330
1B
100
AcDbEntity
  8
0
  6
Continuous
 62
     7
370
    25
100
AcDbLine
 10
-18.3444755307
 20
-64.6596633399
 30
0.0
 11
-17.9439799271
 21
-63.9279995392
 31
0.0
  0
LINE
  5
3CC
330
1B
100
AcDbEntity
  8
0
  6
Continuous
 62
     7
370
    25
100
AcDbLine
 10
-16.9285925596
 20
-64.6648958092
 30
0.0
 11
-17.3273535868
 21
-63.930278314
 31
0.0
  0
LINE
  5
3CD
330
1B
100
AcDbEntity
  8
0
  6
Continuous
 62
     7
370
    25
100
AcDbLine
 10
-1.7373296854
 20
-49.4241837586
 30
0.0
 11
-16.9216600753
 21
-64.6641204561
 31
0.0
  0
LINE
  5
3CE
330
1B
100
AcDbEntity
  8
0
  6
Continuous
 62
     7
370
    25
100
AcDbLine
 10
-16.9216600753
 20
-64.6641204561
 30
0.0
 11
-16.9285925596
 21
-64.6648958092
 31
0.0
  0
LINE
  5
3CF
330
1B
100
AcDbEntity
  8
0
  6
Continuous
 62
     7
370
    25
100
AcDbLine
 10
-1.7373296854
 20
-49.4241837586
 30
0.0
 11
-2.0723871009
 21
-48.619446845
 31
0.0
  0
LINE
  5
3D0
330
1B
100
AcDbEntity
  8
0
  6
Continuous
 62
     7
370
    25
100
AcDbLine
 10
17.0191541119
 20
-64.5972416814
 30
0.0
 11
17.012093569
 21
-64.5963997868
 31
0.0
  0
LINE
  5
3D1
330
1B
100
AcDbEntity
  8
0
  6
Continuous
 62
     7
370
    25
100
AcDbLine
 10
17.012093569
 20
-64.5963997868
 30
0.0
 11
1.9998558222
 21
-49.4173533201
 31
0.0
  0
LINE
  5
3D2
330
1B
100
AcDbEntity
  8
0
  6
Continuous
 62
     7
370
    25
100
AcDbLine
 10
1.9998558222
 20
-49.4173533201
 30
0.0
 11
2.335443404
 21
-48.6113906714
 31
0.0
  0
LINE
  5
3D3
330
1B
100
AcDbEntity
  8
0
  6
Continuous
 62
     7
370
    25
100
AcDbLine
 10
17.0191541119
 20
-64.5972416814
 30
0.0
 11
17.4228837011
 21
-63.8664753027
 31
0.0
  0
LINE
  5
3D4
330
1B
100
AcDbEntity
  8
0
  6
Continuous
 62
     7
370
    25
100
AcDbLine
 10
18.0248968779
 20
-63.8687002518
 30
0.0
 11
18.4244461659
 21
-64.6024354271
 31
0.0
  0
LINE
  5
3D5
330
1B
100
AcDbEntity
  8
0
  6
Continuous
 62
     7
370
    25
100
AcDbLine
 10
18.4244461659
 20
-64.6024354271
 30
0.0
 11
17.0191541119
 21
-64.5972416814
 31
0.0
  0
LINE
  5
3D6
330
1B
100
AcDbEntity
  8
0
  6
Continuous
 62
     7
370
    25
100
AcDbLine
 10
18.4314838739
 20
-64.6016456375
 30
0.0
 11
18.4244461659
 21
-64.6024354271
 31
0.0
  0
LINE
  5
3D7
330
1B
100
AcDbEntity
  8
0
  6
Continuous
 62
     7
370
    25
100
AcDbLine
 10
24.6596633399
 20
-58.3444755307
 30
0.0
 11
24.6588364527
 21
-58.3514879646
 31
0.0
  0
LINE
  5
3D8
330
1B
100
AcDbEntity
  8
0
  6
Continuous
 62
     7
370
    25
100
AcDbLine
 10
24.6588364527
 20
-58.3514879646
 30
0.0
 11
18.4314838739
 21
-64.6016456375
 31
0.0
  0
LINE
  5
3D9
330
1B
100
AcDbEntity
  8
0
  6
Continuous
 62
     7
370
    25
100
AcDbLine
 10
-2.1038806051
 20
-31.3881861022
 30
0.0
 11
-1.771767047
 21
-30.582229803
 31
0.0
  0
LINE
  5
3DA
330
1B
100
AcDbEntity
  8
0
  6
Continuous
 62
     7
370
    25
100
AcDbLine
 10
-17.4113000806
 20
-16.1366191604
 30
0.0
 11
-17.010804477
 21
-15.4049553597
 31
0.0
  0
LINE
  5
3DB
330
1B
100
AcDbEntity
  8
0
  6
Continuous
 62
     7
370
    25
100
AcDbLine
 10
-17.010804477
 20
-15.4049553597
 30
0.0
 11
-17.0037920431
 21
-15.4057822469
 31
0.0
  0
LINE
  5
3DC
330
1B
100
AcDbEntity
  8
0
  6
Continuous
 62
     7
370
    25
100
AcDbLine
 10
-17.0037920431
 20
-15.4057822469
 30
0.0
 11
-1.771767047
 21
-30.582229803
 31
0.0
  0
LINE
  5
3DD
330
1B
100
AcDbEntity
  8
0
  6
Continuous
 62
     7
370
    25
100
AcDbLine
 10
-18.4266874481
 20
-15.3997228904
 30
0.0
 11
-18.0279264209
 21
-16.1343403856
 31
0.0
  0
LINE
  5
3DE
330
1B
100
AcDbEntity
  8
0
  6
Continuous
 62
     7
370
    25
100
AcDbLine
 10
-18.4266874481
 20
-15.3997228904
 30
0.0
 11
-17.010804477
 21
-15.4049553597
 31
0.0
  0
LINE
  5
3DF
330
1B
100
AcDbEntity
  8
0
  6
Continuous
 62
     7
370
    25
100
AcDbLine
 10
24.5995017565
 20
-21.5663800676
 30
0.0
 11
24.6002771096
 21
-21.5733125519
 31
0.0
  0
LINE
  5
3E0
330
1B
100
AcDbEntity
  8
0
  6
Continuous
 62
     7
370
    25
100
AcDbLine
 10
17.9439799271
 20
-16.0720004608
 30
0.0
 11
18.3444755307
 21
-15.3403366601
 31
0.0
  0
LINE
  5
3E1
330
1B
100
AcDbEntity
  8
0
  6
Continuous
 62
     7
370
    25
100
AcDbLine
 10
18.3444755307
 20
-15.3403366601
 30
0.0
 11
18.3514879646
 21
-15.3411635473
 31
0.0
  0
LINE
  5
3E2
330
1B
100
AcDbEntity
  8
0
  6
Continuous
 62
     7
370
    25
100
AcDbLine
 10
18.3514879646
 20
-15.3411635473
 30
0.0
 11
24.5995017565
 21
-21.5663800676
 31
0.0
  0
LINE
  5
3E3
330
1B
100
AcDbEntity
  8
0
  6
Continuous
 62
     7
370
    25
100
AcDbLine
 10
17.3273535868
 20
-16.069721686
 30
0.0
 11
16.9285925596
 21
-15.3351041908
 31
0.0
  0
LINE
  5
3E4
330
1B
100
AcDbEntity
  8
0
  6
Continuous
 62
     7
370
    25
100
AcDbLine
 10
16.9285925596
 20
-15.3351041908
 30
0.0
 11
18.3444755307
 21
-15.3403366601
 31
0.0
  0
LINE
  5
3E5
330
1B
100
AcDbEntity
  8
0
  6
Continuous
 62
     7
370
    25
100
AcDbLine
 10
2.0723871009
 20
-31.380553155
 30
0.0
 11
1.7373296854
 21
-30.5758162414
 31
0.0
  0
LINE
  5
3E6
330
1B
100
AcDbEntity
  8
0
  6
Continuous
 62
     7
370
    25
100
AcDbLine
 10
1.7373296854
 20
-30.5758162414
 30
0.0
 11
16.9216600753
 21
-15.3358795439
 31
0.0
  0
LINE
  5
3E7
330
1B
100
AcDbEntity
  8
0
  6
Continuous
 62
     7
370
    25
100
AcDbLine
 10
16.9216600753
 20
-15.3358795439
 30
0.0
 11
16.9285925596
 21
-15.3351041908
 31
0.0
  0
LINE
  5
3E8
330
1B
100
AcDbEntity
  8
0
  6
Continuous
 62
     7
370
    25
100
AcDbLine
 10
-24.6596633399
 20
-21.6555244693
 30
0.0
 11
-24.6588364527
 21
-21.6485120354
 31
0.0
  0
LINE
  5
3E9
330
1B
100
AcDbEntity
  8
0
  6
Continuous
 62
     7
370
    25
100
AcDbLine
 10
-24.6588364527
 20
-21.6485120354
 30
0.0
 11
-18.4336199324
 21
-15.4004982435
 31
0.0
  0
LINE
  5
3EA
330
1B
100
AcDbEntity
  8
0
  6
Continuous
 62
     7
370
    25
100
AcDbLine
 10
-18.4336199324
 20
-15.4004982435
 30
0.0
 11
-18.4266874481
 21
-15.3997228904
 31
0.0
  0
LINE
  5
3EB
330
1B
100
AcDbEntity
  8
0
  6
Continuous
 62
     7
370
    25
100
AcDbLine
 10
-24.6596633399
 20
-21.6555244693
 30
0.0
 11
-23.9279995392
 21
-22.0560200729
 31
0.0
  0
LINE
  5
3EC
330
1B
100
AcDbEntity
  8
0
  6
Continuous
 62
     7
370
    25
100
AcDbLine
 10
-24.6648958092
 20
-23.0714074404
 30
0.0
 11
-24.6596633399
 21
-21.6555244693
 31
0.0
  0
LINE
  5
3ED
330
1B
100
AcDbEntity
  8
0
  6
Continuous
 62
     7
370
    25
100
AcDbLine
 10
-18.3444755307
 20
-64.6596633399
 30
0.0
 11
-18.3514879646
 21
-64.6588364527
 31
0.0
  0
LINE
  5
3EE
330
1B
100
AcDbEntity
  8
0
  6
Continuous
 62
     7
370
    25
100
AcDbLine
 10
-18.3514879646
 20
-64.6588364527
 30
0.0
 11
-24.5995017565
 21
-58.4336199324
 31
0.0
  0
LINE
  5
3EF
330
1B
100
AcDbEntity
  8
0
  6
Continuous
 62
     7
370
    25
100
AcDbLine
 10
-24.5995017565
 20
-58.4336199324
 30
0.0
 11
-24.6002771096
 21
-58.4266874481
 31
0.0
  0
LINE
  5
3F0
330
1B
100
AcDbEntity
  8
0
  6
Continuous
 62
     7
370
    25
100
AcDbLine
 10
1.9998558222
 20
-49.4173533201
 30
0.0
 11
-1.7373296854
 21
-49.4241837586
 31
0.0
  0
LINE
  5
3F1
330
1B
100
AcDbEntity
  8
0
  6
Continuous
 62
     7
370
    25
100
AcDbLine
 10
-1.771767047
 20
-30.582229803
 30
0.0
 11
1.7373296854
 21
-30.5758162414
 31
0.0
  0
LINE
  5
3F2
330
1B
100
AcDbEntity
  8
0
  6
Continuous
 62
     7
370
    25
100
AcDbLine
 10
-9.417770197
 20
-41.771767047
 30
0.0
 11
-9.4241837586
 21
-38.2626703146
 31
0.0
  0
LINE
  5
3F3
330
1B
100
AcDbEntity
  8
0
  6
Continuous
 62
     7
370
    25
100
AcDbLine
 10
16.4817430712
 20
-40.0
 30
0.0
 11
19.25
 21
-40.0
 31
0.0
  0
LINE
  5
3F4
330
1B
100
AcDbEntity
  8
0
  6
Continuous
 62
     7
370
    25
100
AcDbLine
 10
-16.4817430712
 20
-40.0
 30
0.0
 11
-19.25
 21
-40.0
 31
0.0
  0
LINE
  5
3F5
330
1B
100
AcDbEntity
  8
0
  6
Continuous
 62
     7
370
    25
100
AcDbLine
 10
-4.0
 20
-21.420142461
 30
0.0
 11
-3.9
 21
-21.3815954201
 31
0.0
  0
LINE
  5
3F6
330
1B
100
AcDbEntity
  8
0
  6
Continuous
 62
     7
370
    25
100
AcDbLine
 10
3.9
 20
-21.3815949268
 30
0.0
 11
4.0
 21
-21.420142461
 31
0.0
  0
LINE
  5
3F7
330
1B
100
AcDbEntity
  8
0
  6
Continuous
 62
     7
370
    25
100
AcDbLine
 10
20.3862606375
 20
-35.6428502911
 30
0.0
 11
20.5361092133
 21
-35.6104421205
 31
0.0
  0
LINE
  5
3F8
330
1B
100
AcDbEntity
  8
0
  6
Continuous
 62
     7
370
    25
100
AcDbLine
 10
-20.3862524621
 20
-44.3571880311
 30
0.0
 11
-20.5361009614
 21
-44.3895964854
 31
0.0
  0
LINE
  5
3F9
330
1B
100
AcDbEntity
  8
0
  6
Continuous
 62
     7
370
    25
100
AcDbLine
 10
7.2268363228
 20
54.8128556136
 30
0.0
 11
6.7060402844
 21
55.0557921867
 31
0.0
  0
LINE
  5
3FA
330
1B
100
AcDbEntity
  8
0
  6
Continuous
 62
     7
370
    25
100
AcDbLine
 10
-7.2268363228
 20
25.1871443864
 30
0.0
 11
-6.7060402844
 21
24.9442078133
 31
0.0
  0
LINE
  5
3FB
330
1B
100
AcDbEntity
  8
0
  6
Continuous
 62
     7
370
    25
100
AcDbLine
 10
6.7060402844
 20
55.0557921867
 30
0.0
 11
7.8323800412
 21
57.5845478444
 31
0.0
  0
LINE
  5
3FC
330
1B
100
AcDbEntity
  8
0
  6
Continuous
 62
     7
370
    25
100
AcDbLine
 10
7.5365381506
 20
56.9203505185
 30
0.0
 11
8.7506332811
 21
56.3255654158
 31
0.0
  0
LINE
  5
3FD
330
1B
100
AcDbEntity
  8
0
  6
Continuous
 62
     7
370
    25
100
AcDbLine
 10
-6.7060402844
 20
24.9442078133
 30
0.0
 11
-7.8323800412
 21
22.4154521556
 31
0.0
  0
LINE
  5
3FE
330
1B
100
AcDbEntity
  8
0
  6
Continuous
 62
     7
370
    25
100
AcDbLine
 10
-7.5365381506
 20
23.0796494815
 30
0.0
 11
-8.7506332811
 21
23.6744345842
 31
0.0
  0
LINE
  5
3FF
330
1B
100
AcDbEntity
  8
0
  6
Continuous
 62
     7
370
    25
100
AcDbLine
 10
4.3145160213
 20
60.395326128
 30
0.0
 11
4.34588163
 21
60.5453963909
 31
0.0
  0
LINE
  5
400
330
1B
100
AcDbEntity
  8
0
  6
Continuous
 62
     7
370
    25
100
AcDbLine
 10
-4.3144776882
 20
19.6046657476
 30
0.0
 11
-4.3458430067
 21
19.4545954393
 31
0.0
  0
LINE
  5
401
330
1B
100
AcDbEntity
  8
0
  6
Continuous
 62
     7
370
    25
100
AcDbLine
 10
8.6079629938
 20
37.8804186009
 30
0.0
 11
8.6232116675
 21
42.0566654438
 31
0.0
  0
LINE
  5
402
330
1B
100
AcDbEntity
  8
0
  6
Continuous
 62
     7
370
    25
100
AcDbLine
 10
8.6232116675
 20
42.0566654438
 30
0.0
 11
9.4273362406
 21
41.7201410869
 31
0.0
  0
LINE
  5
403
330
1B
100
AcDbEntity
  8
0
  6
Continuous
 62
     7
370
    25
100
AcDbLine
 10
9.4273362406
 20
41.7201410869
 30
0.0
 11
9.4145235871
 21
38.2110618848
 31
0.0
  0
LINE
  5
404
330
1B
100
AcDbEntity
  8
0
  6
Continuous
 62
     7
370
    25
100
AcDbLine
 10
8.6079629938
 20
37.8804186009
 30
0.0
 11
9.4145235871
 21
38.2110618848
 31
0.0
  0
LINE
  5
405
330
1B
100
AcDbEntity
  8
0
  6
Continuous
 62
     7
370
    25
100
AcDbLine
 10
1.9482287227
 20
30.5718309461
 30
0.0
 11
-1.7889381152
 21
30.5854764129
 31
0.0
  0
LINE
  5
406
330
1B
100
AcDbEntity
  8
0
  6
Continuous
 62
     7
370
    25
100
AcDbLine
 10
-1.7889381152
 20
30.5854764129
 30
0.0
 11
-2.1195813991
 21
31.3920370062
 31
0.0
  0
LINE
  5
407
330
1B
100
AcDbEntity
  8
0
  6
Continuous
 62
     7
370
    25
100
AcDbLine
 10
-2.1195813991
 20
31.3920370062
 30
0.0
 11
2.2882270859
 21
31.3759428346
 31
0.0
  0
LINE
  5
408
330
1B
100
AcDbEntity
  8
0
  6
Continuous
 62
     7
370
    25
100
AcDbLine
 10
1.9482287227
 20
30.5718309461
 30
0.0
 11
2.2882270859
 21
31.3759428346
 31
0.0
  0
LINE
  5
409
330
1B
100
AcDbEntity
  8
0
  6
Continuous
 62
     7
370
    25
100
AcDbLine
 10
-1.7889381152
 20
30.5854764129
 30
0.0
 11
-17.0565392446
 21
15.428962444
 31
0.0
  0
LINE
  5
40A
330
1B
100
AcDbEntity
  8
0
  6
Continuous
 62
     7
370
    25
100
AcDbLine
 10
-17.0565392446
 20
15.428962444
 30
0.0
 11
-17.0634758729
 21
15.4282250853
 31
0.0
  0
LINE
  5
40B
330
1B
100
AcDbEntity
  8
0
  6
Continuous
 62
     7
370
    25
100
AcDbLine
 10
-17.0634758729
 20
15.4282250853
 30
0.0
 11
-17.4582059922
 21
16.1650163407
 31
0.0
  0
LINE
  5
40C
330
1B
100
AcDbEntity
  8
0
  6
Continuous
 62
     7
370
    25
100
AcDbLine
 10
-17.4582059922
 20
16.1650163407
 30
0.0
 11
-2.1195813991
 21
31.3920370062
 31
0.0
  0
LINE
  5
40D
330
1B
100
AcDbEntity
  8
0
  6
Continuous
 62
     7
370
    25
100
AcDbLine
 10
16.884131933
 20
15.3098806425
 30
0.0
 11
16.8770761088
 21
15.3107612087
 31
0.0
  0
LINE
  5
40E
330
1B
100
AcDbEntity
  8
0
  6
Continuous
 62
     7
370
    25
100
AcDbLine
 10
16.8770761088
 20
15.3107612087
 30
0.0
 11
1.9482287227
 21
30.5718309461
 31
0.0
  0
LINE
  5
40F
330
1B
100
AcDbEntity
  8
0
  6
Continuous
 62
     7
370
    25
100
AcDbLine
 10
2.2882270859
 20
31.3759428346
 30
0.0
 11
17.2918592851
 21
16.0384240439
 31
0.0
  0
LINE
  5
410
330
1B
100
AcDbEntity
  8
0
  6
Continuous
 62
     7
370
    25
100
AcDbLine
 10
16.884131933
 20
15.3098806425
 30
0.0
 11
17.2918592851
 21
16.0384240439
 31
0.0
  0
LINE
  5
411
330
1B
100
AcDbEntity
  8
0
  6
Continuous
 62
     7
370
    25
100
AcDbLine
 10
17.2918592851
 20
16.0384240439
 30
0.0
 11
17.8938512357
 21
16.0329007361
 31
0.0
  0
LINE
  5
412
330
1B
100
AcDbEntity
  8
0
  6
Continuous
 62
     7
370
    25
100
AcDbLine
 10
17.8938512357
 20
16.0329007361
 30
0.0
 11
18.289374438
 21
15.2969874685
 31
0.0
  0
LINE
  5
413
330
1B
100
AcDbEntity
  8
0
  6
Continuous
 62
     7
370
    25
100
AcDbLine
 10
18.289374438
 20
15.2969874685
 30
0.0
 11
16.884131933
 21
15.3098806425
 31
0.0
  0
LINE
  5
414
330
1B
100
AcDbEntity
  8
0
  6
Continuous
 62
     7
370
    25
100
AcDbLine
 10
2.1195813991
 20
48.6079629938
 30
0.0
 11
-2.0566654438
 21
48.6232116675
 31
0.0
  0
LINE
  5
415
330
1B
100
AcDbEntity
  8
0
  6
Continuous
 62
     7
370
    25
100
AcDbLine
 10
-2.0566654438
 20
48.6232116675
 30
0.0
 11
-1.7201410869
 21
49.4273362406
 31
0.0
  0
LINE
  5
416
330
1B
100
AcDbEntity
  8
0
  6
Continuous
 62
     7
370
    25
100
AcDbLine
 10
-1.7201410869
 20
49.4273362406
 30
0.0
 11
1.7889381152
 21
49.4145235871
 31
0.0
  0
LINE
  5
417
330
1B
100
AcDbEntity
  8
0
  6
Continuous
 62
     7
370
    25
100
AcDbLine
 10
2.1195813991
 20
48.6079629938
 30
0.0
 11
1.7889381152
 21
49.4145235871
 31
0.0
  0
LINE
  5
418
330
1B
100
AcDbEntity
  8
0
  6
Continuous
 62
     7
370
    25
100
AcDbLine
 10
17.4582059922
 20
63.8349836593
 30
0.0
 11
17.0634758729
 21
64.5717749147
 31
0.0
  0
LINE
  5
419
330
1B
100
AcDbEntity
  8
0
  6
Continuous
 62
     7
370
    25
100
AcDbLine
 10
17.4582059922
 20
63.8349836593
 30
0.0
 11
2.1195813991
 21
48.6079629938
 31
0.0
  0
LINE
  5
41A
330
1B
100
AcDbEntity
  8
0
  6
Continuous
 62
     7
370
    25
100
AcDbLine
 10
1.7889381152
 20
49.4145235871
 30
0.0
 11
17.0565392446
 21
64.571037556
 31
0.0
  0
LINE
  5
41B
330
1B
100
AcDbEntity
  8
0
  6
Continuous
 62
     7
370
    25
100
AcDbLine
 10
17.0565392446
 20
64.571037556
 30
0.0
 11
17.0634758729
 21
64.5717749147
 31
0.0
  0
LINE
  5
41C
330
1B
100
AcDbEntity
  8
0
  6
Continuous
 62
     7
370
    25
100
AcDbLine
 10
-24.5587849908
 20
58.479308924
 30
0.0
 11
-24.5579196953
 21
58.4863167222
 31
0.0
  0
LINE
  5
41D
330
1B
100
AcDbEntity
  8
0
  6
Continuous
 62
     7
370
    25
100
AcDbLine
 10
-24.5579196953
 20
58.4863167222
 30
0.0
 11
-18.2985641403
 21
64.7001291674
 31
0.0
  0
LINE
  5
41E
330
1B
100
AcDbEntity
  8
0
  6
Continuous
 62
     7
370
    25
100
AcDbLine
 10
-18.2985641403
 20
64.7001291674
 30
0.0
 11
-18.2916275119
 21
64.7008665262
 31
0.0
  0
LINE
  5
41F
330
1B
100
AcDbEntity
  8
0
  6
Continuous
 62
     7
370
    25
100
AcDbLine
 10
-18.2916275119
 20
64.7008665262
 30
0.0
 11
-17.8968973926
 21
63.9640752708
 31
0.0
  0
LINE
  5
420
330
1B
100
AcDbEntity
  8
0
  6
Continuous
 62
     7
370
    25
100
AcDbLine
 10
-17.8968973926
 20
63.9640752708
 30
0.0
 11
-23.8293264621
 21
58.074810592
 31
0.0
  0
LINE
  5
421
330
1B
100
AcDbEntity
  8
0
  6
Continuous
 62
     7
370
    25
100
AcDbLine
 10
-24.5587849908
 20
58.479308924
 30
0.0
 11
-23.8293264621
 21
58.074810592
 31
0.0
  0
LINE
  5
422
330
1B
100
AcDbEntity
  8
0
  6
Continuous
 62
     7
370
    25
100
AcDbLine
 10
8.6232116675
 20
42.0566654438
 30
0.0
 11
23.9584180735
 21
57.2802927928
 31
0.0
  0
LINE
  5
423
330
1B
100
AcDbEntity
  8
0
  6
Continuous
 62
     7
370
    25
100
AcDbLine
 10
23.9584180735
 20
57.2802927928
 30
0.0
 11
24.6878766023
 21
56.8757944609
 31
0.0
  0
LINE
  5
424
330
1B
100
AcDbEntity
  8
0
  6
Continuous
 62
     7
370
    25
100
AcDbLine
 10
24.6878766023
 20
56.8757944609
 30
0.0
 11
24.6870113068
 21
56.8687866627
 31
0.0
  0
LINE
  5
425
330
1B
100
AcDbEntity
  8
0
  6
Continuous
 62
     7
370
    25
100
AcDbLine
 10
24.6870113068
 20
56.8687866627
 30
0.0
 11
9.4273362406
 21
41.7201410869
 31
0.0
  0
LINE
  5
426
330
1B
100
AcDbEntity
  8
0
  6
Continuous
 62
     7
370
    25
100
AcDbLine
 10
23.9584180735
 20
57.2802927928
 30
0.0
 11
23.9640752708
 21
57.8968973926
 31
0.0
  0
LINE
  5
427
330
1B
100
AcDbEntity
  8
0
  6
Continuous
 62
     7
370
    25
100
AcDbLine
 10
23.9640752708
 20
57.8968973926
 30
0.0
 11
24.7008665262
 21
58.2916275119
 31
0.0
  0
LINE
  5
428
330
1B
100
AcDbEntity
  8
0
  6
Continuous
 62
     7
370
    25
100
AcDbLine
 10
24.7008665262
 20
58.2916275119
 30
0.0
 11
24.6878766023
 21
56.8757944609
 31
0.0
  0
LINE
  5
429
330
1B
100
AcDbEntity
  8
0
  6
Continuous
 62
     7
370
    25
100
AcDbLine
 10
23.8349836593
 20
22.5417940078
 30
0.0
 11
24.5717749147
 21
22.9365241271
 31
0.0
  0
LINE
  5
42A
330
1B
100
AcDbEntity
  8
0
  6
Continuous
 62
     7
370
    25
100
AcDbLine
 10
23.8349836593
 20
22.5417940078
 30
0.0
 11
8.6079629938
 21
37.8804186009
 31
0.0
  0
LINE
  5
42B
330
1B
100
AcDbEntity
  8
0
  6
Continuous
 62
     7
370
    25
100
AcDbLine
 10
9.4145235871
 20
38.2110618848
 30
0.0
 11
24.571037556
 21
22.9434607554
 31
0.0
  0
LINE
  5
42C
330
1B
100
AcDbEntity
  8
0
  6
Continuous
 62
     7
370
    25
100
AcDbLine
 10
24.571037556
 20
22.9434607554
 30
0.0
 11
24.5717749147
 21
22.9365241271
 31
0.0
  0
LINE
  5
42D
330
1B
100
AcDbEntity
  8
0
  6
Continuous
 62
     7
370
    25
100
AcDbLine
 10
-17.0634758729
 20
15.4282250853
 30
0.0
 11
-18.479308924
 21
15.4412150092
 31
0.0
  0
LINE
  5
42E
330
1B
100
AcDbEntity
  8
0
  6
Continuous
 62
     7
370
    25
100
AcDbLine
 10
-18.479308924
 20
15.4412150092
 30
0.0
 11
-18.074810592
 21
16.1706735379
 31
0.0
  0
LINE
  5
42F
330
1B
100
AcDbEntity
  8
0
  6
Continuous
 62
     7
370
    25
100
AcDbLine
 10
-18.074810592
 20
16.1706735379
 30
0.0
 11
-17.4582059922
 21
16.1650163407
 31
0.0
  0
LINE
  5
430
330
1B
100
AcDbEntity
  8
0
  6
Continuous
 62
     7
370
    25
100
AcDbLine
 10
-18.479308924
 20
15.4412150092
 30
0.0
 11
-18.4863167222
 21
15.4420803047
 31
0.0
  0
LINE
  5
431
330
1B
100
AcDbEntity
  8
0
  6
Continuous
 62
     7
370
    25
100
AcDbLine
 10
-18.4863167222
 20
15.4420803047
 30
0.0
 11
-24.7001291674
 21
21.7014358597
 31
0.0
  0
LINE
  5
432
330
1B
100
AcDbEntity
  8
0
  6
Continuous
 62
     7
370
    25
100
AcDbLine
 10
-24.7001291674
 20
21.7014358597
 30
0.0
 11
-24.7008665262
 21
21.7083724881
 31
0.0
  0
LINE
  5
433
330
1B
100
AcDbEntity
  8
0
  6
Continuous
 62
     7
370
    25
100
AcDbLine
 10
-24.7008665262
 20
21.7083724881
 30
0.0
 11
-23.9640752708
 21
22.1031026074
 31
0.0
  0
LINE
  5
434
330
1B
100
AcDbEntity
  8
0
  6
Continuous
 62
     7
370
    25
100
AcDbLine
 10
-23.9640752708
 20
22.1031026074
 30
0.0
 11
-18.074810592
 21
16.1706735379
 31
0.0
  0
LINE
  5
435
330
1B
100
AcDbEntity
  8
0
  6
Continuous
 62
     7
370
    25
100
AcDbLine
 10
18.2964163676
 20
15.2977386871
 30
0.0
 11
18.289374438
 21
15.2969874685
 31
0.0
  0
LINE
  5
436
330
1B
100
AcDbEntity
  8
0
  6
Continuous
 62
     7
370
    25
100
AcDbLine
 10
17.8938512357
 20
16.0329007361
 30
0.0
 11
23.8293264621
 21
21.925189408
 31
0.0
  0
LINE
  5
437
330
1B
100
AcDbEntity
  8
0
  6
Continuous
 62
     7
370
    25
100
AcDbLine
 10
23.8293264621
 20
21.925189408
 30
0.0
 11
24.5587849908
 21
21.520691076
 31
0.0
  0
LINE
  5
438
330
1B
100
AcDbEntity
  8
0
  6
Continuous
 62
     7
370
    25
100
AcDbLine
 10
24.5587849908
 20
21.520691076
 30
0.0
 11
24.5579196953
 21
21.5136832778
 31
0.0
  0
LINE
  5
439
330
1B
100
AcDbEntity
  8
0
  6
Continuous
 62
     7
370
    25
100
AcDbLine
 10
24.5579196953
 20
21.5136832778
 30
0.0
 11
18.2964163676
 21
15.2977386871
 31
0.0
  0
LINE
  5
43A
330
1B
100
AcDbEntity
  8
0
  6
Continuous
 62
     7
370
    25
100
AcDbLine
 10
-17.2802927928
 20
63.9584180735
 30
0.0
 11
-17.8968973926
 21
63.9640752708
 31
0.0
  0
LINE
  5
43B
330
1B
100
AcDbEntity
  8
0
  6
Continuous
 62
     7
370
    25
100
AcDbLine
 10
-18.2916275119
 20
64.7008665262
 30
0.0
 11
-16.8757944609
 21
64.6878766023
 31
0.0
  0
LINE
  5
43C
330
1B
100
AcDbEntity
  8
0
  6
Continuous
 62
     7
370
    25
100
AcDbLine
 10
-17.2802927928
 20
63.9584180735
 30
0.0
 11
-16.8757944609
 21
64.6878766023
 31
0.0
  0
LINE
  5
43D
330
1B
100
AcDbEntity
  8
0
  6
Continuous
 62
     7
370
    25
100
AcDbLine
 10
24.7001291674
 20
58.2985641403
 30
0.0
 11
24.7008665262
 21
58.2916275119
 31
0.0
  0
LINE
  5
43E
330
1B
100
AcDbEntity
  8
0
  6
Continuous
 62
     7
370
    25
100
AcDbLine
 10
23.9640752708
 20
57.8968973926
 30
0.0
 11
18.074810592
 21
63.8293264621
 31
0.0
  0
LINE
  5
43F
330
1B
100
AcDbEntity
  8
0
  6
Continuous
 62
     7
370
    25
100
AcDbLine
 10
18.074810592
 20
63.8293264621
 30
0.0
 11
18.479308924
 21
64.5587849908
 31
0.0
  0
LINE
  5
440
330
1B
100
AcDbEntity
  8
0
  6
Continuous
 62
     7
370
    25
100
AcDbLine
 10
18.479308924
 20
64.5587849908
 30
0.0
 11
18.4863167222
 21
64.5579196953
 31
0.0
  0
LINE
  5
441
330
1B
100
AcDbEntity
  8
0
  6
Continuous
 62
     7
370
    25
100
AcDbLine
 10
18.4863167222
 20
64.5579196953
 30
0.0
 11
24.7001291674
 21
58.2985641403
 31
0.0
  0
LINE
  5
442
330
1B
100
AcDbEntity
  8
0
  6
Continuous
 62
     7
370
    25
100
AcDbLine
 10
18.074810592
 20
63.8293264621
 30
0.0
 11
17.4582059922
 21
63.8349836593
 31
0.0
  0
LINE
  5
443
330
1B
100
AcDbEntity
  8
0
  6
Continuous
 62
     7
370
    25
100
AcDbLine
 10
17.0634758729
 20
64.5717749147
 30
0.0
 11
18.479308924
 21
64.5587849908
 31
0.0
  0
LINE
  5
444
330
1B
100
AcDbEntity
  8
0
  6
Continuous
 62
     7
370
    25
100
AcDbLine
 10
-9.4145235871
 20
41.7889381152
 30
0.0
 11
-24.571037556
 21
57.0565392446
 31
0.0
  0
LINE
  5
445
330
1B
100
AcDbEntity
  8
0
  6
Continuous
 62
     7
370
    25
100
AcDbLine
 10
-24.571037556
 20
57.0565392446
 30
0.0
 11
-24.5717749147
 21
57.0634758729
 31
0.0
  0
LINE
  5
446
330
1B
100
AcDbEntity
  8
0
  6
Continuous
 62
     7
370
    25
100
AcDbLine
 10
-24.5717749147
 20
57.0634758729
 30
0.0
 11
-23.8349836593
 21
57.4582059922
 31
0.0
  0
LINE
  5
447
330
1B
100
AcDbEntity
  8
0
  6
Continuous
 62
     7
370
    25
100
AcDbLine
 10
-23.8349836593
 20
57.4582059922
 30
0.0
 11
-8.6079629938
 21
42.1195813991
 31
0.0
  0
LINE
  5
448
330
1B
100
AcDbEntity
  8
0
  6
Continuous
 62
     7
370
    25
100
AcDbLine
 10
-9.4145235871
 20
41.7889381152
 30
0.0
 11
-8.6079629938
 21
42.1195813991
 31
0.0
  0
LINE
  5
449
330
1B
100
AcDbEntity
  8
0
  6
Continuous
 62
     7
370
    25
100
AcDbLine
 10
-24.7008665262
 20
21.7083724881
 30
0.0
 11
-24.6878766023
 21
23.1242055391
 31
0.0
  0
LINE
  5
44A
330
1B
100
AcDbEntity
  8
0
  6
Continuous
 62
     7
370
    25
100
AcDbLine
 10
-24.6878766023
 20
23.1242055391
 30
0.0
 11
-23.9584180735
 21
22.7197072072
 31
0.0
  0
LINE
  5
44B
330
1B
100
AcDbEntity
  8
0
  6
Continuous
 62
     7
370
    25
100
AcDbLine
 10
-23.9584180735
 20
22.7197072072
 30
0.0
 11
-23.9640752708
 21
22.1031026074
 31
0.0
  0
LINE
  5
44C
330
1B
100
AcDbEntity
  8
0
  6
Continuous
 62
     7
370
    25
100
AcDbLine
 10
23.8293264621
 20
21.925189408
 30
0.0
 11
23.8349836593
 21
22.5417940078
 31
0.0
  0
LINE
  5
44D
330
1B
100
AcDbEntity
  8
0
  6
Continuous
 62
     7
370
    25
100
AcDbLine
 10
-8.6232116675
 20
37.9433345562
 30
0.0
 11
-23.9584180735
 21
22.7197072072
 31
0.0
  0
LINE
  5
44E
330
1B
100
AcDbEntity
  8
0
  6
Continuous
 62
     7
370
    25
100
AcDbLine
 10
-8.6079629938
 20
42.1195813991
 30
0.0
 11
-8.6232116675
 21
37.9433345562
 31
0.0
  0
LINE
  5
44F
330
1B
100
AcDbEntity
  8
0
  6
Continuous
 62
     7
370
    25
100
AcDbLine
 10
-23.8293264621
 20
58.074810592
 30
0.0
 11
-23.8349836593
 21
57.4582059922
 31
0.0
  0
LINE
  5
450
330
1B
100
AcDbEntity
  8
0
  6
Continuous
 62
     7
370
    25
100
AcDbLine
 10
-2.0566654438
 20
48.6232116675
 30
0.0
 11
-17.2802927928
 21
63.9584180735
 31
0.0
  0
LINE
  5
451
330
1B
100
AcDbEntity
  8
0
  6
Continuous
 62
     7
370
    25
100
AcDbLine
 10
-24.6878766023
 20
23.1242055391
 30
0.0
 11
-24.6870113068
 21
23.1312133373
 31
0.0
  0
LINE
  5
452
330
1B
100
AcDbEntity
  8
0
  6
Continuous
 62
     7
370
    25
100
AcDbLine
 10
-24.6870113068
 20
23.1312133373
 30
0.0
 11
-9.4273362406
 21
38.2798589131
 31
0.0
  0
LINE
  5
453
330
1B
100
AcDbEntity
  8
0
  6
Continuous
 62
     7
370
    25
100
AcDbLine
 10
-9.4273362406
 20
38.2798589131
 30
0.0
 11
-8.6232116675
 21
37.9433345562
 31
0.0
  0
LINE
  5
454
330
1B
100
AcDbEntity
  8
0
  6
Continuous
 62
     7
370
    25
100
AcDbLine
 10
-16.8757944609
 20
64.6878766023
 30
0.0
 11
-16.8687866627
 21
64.6870113068
 31
0.0
  0
LINE
  5
455
330
1B
100
AcDbEntity
  8
0
  6
Continuous
 62
     7
370
    25
100
AcDbLine
 10
-16.8687866627
 20
64.6870113068
 30
0.0
 11
-1.7201410869
 21
49.4273362406
 31
0.0
  0
LINE
  5
456
330
1B
100
AcDbEntity
  8
0
  6
Continuous
 62
     7
370
    25
100
AcDbLine
 10
-9.4273362406
 20
38.2798589131
 30
0.0
 11
-9.4145235871
 21
41.7889381152
 31
0.0
  0
LINE
  5
457
330
1B
100
AcDbEntity
  8
0
  6
Continuous
 62
     7
370
    25
100
AcDbLine
 10
24.5717749147
 20
22.9365241271
 30
0.0
 11
24.5587849908
 21
21.520691076
 31
0.0
  0
LINE
  5
458
330
1B
100
AcDbEntity
  8
0
  6
Continuous
 62
     7
370
    25
100
AcDbLine
 10
-24.5717749147
 20
57.0634758729
 30
0.0
 11
-24.5587849908
 21
58.479308924
 31
0.0
  0
LINE
  5
459
330
1B
100
AcDbEntity
  8
0
  6
Continuous
 62
     8
370
    25
100
AcDbLine
 10
3.9
 20
-17.8023516187
 30
0.0
 11
-3.9
 21
-17.8023516187
 31
0.0
  0
LINE
  5
45A
330
1B
100
AcDbEntity
  8
0
  6
Continuous
 62
     8
370
    25
100
AcDbLine
 10
9.2612737028
 20
56.8324904145
 30
0.0
 11
7.8323800412
 21
57.5845478444
 31
0.0
  0
LINE
  5
45B
330
1B
100
AcDbEntity
  8
0
  6
Continuous
 62
     8
370
    25
100
AcDbLine
 10
-9.2612737028
 20
23.1675095855
 30
0.0
 11
-7.8323800412
 21
22.4154521556
 31
0.0
  0
LINE
  5
45C
330
1B
100
AcDbEntity
  8
0
  6
Continuous
 62
     8
370
    25
100
AcDbLine
 10
-10.4037964861
 20
22.033299805
 30
0.0
 11
-8.4816951422
 21
20.9576688987
 31
0.0
  0
LINE
  5
45D
330
1B
100
AcDbEntity
  8
0
  6
Continuous
 62
     8
370
    25
100
AcDbLine
 10
10.4030128887
 20
57.9659222991
 30
0.0
 11
8.4816899894
 21
59.0423195292
 31
0.0
  0
ARC
  5
45E
330
1B
100
AcDbEntity
  8
0
  6
Continuous
 62
     7
370
    25
100
AcDbCircle
 10
3.4
 20
-17.8023516187
 30
0.0
 40
0.500000000000004
100
AcDbArc
 50
0.0
 51
63.4438719881
  0
ARC
  5
45F
330
1B
100
AcDbEntity
  8
0
  6
Continuous
 62
     7
370
    25
100
AcDbCircle
 10
-3.4
 20
-17.8023516187
 30
0.0
 40
0.5000000000000084
100
AcDbArc
 50
116.5561280119
 51
180.0
  0
ARC
  5
460
330
1B
100
AcDbEntity
  8
0
  6
Continuous
 62
     7
370
    25
100
AcDbCircle
 10
53.101455321
 20
-68.0003936096
 30
0.0
 40
10.53481480658381
100
AcDbArc
 50
332.2895628643
 51
342.7104371357
  0
ARC
  5
461
330
1B
100
AcDbEntity
  8
0
  6
Continuous
 62
     7
370
    25
100
AcDbCircle
 10
-53.101455321
 20
68.0003936096
 30
0.0
 40
10.53481480658341
100
AcDbArc
 50
152.2895628643
 51
162.7104371357
  0
ARC
  5
462
330
1B
100
AcDbEntity
  8
0
  6
Continuous
 62
     7
370
    25
100
AcDbCircle
 10
-53.101455321
 20
-68.0003936096
 30
0.0
 40
10.53481480658229
100
AcDbArc
 50
197.2895628643
 51
207.7104371357
  0
ARC
  5
463
330
1B
100
AcDbEntity
  8
0
  6
Continuous
 62
     7
370
    25
100
AcDbCircle
 10
-38.0003936096
 20
83.101455321
 30
0.0
 40
10.5348148065842
100
AcDbArc
 50
107.2895628643
 51
117.7104371357
  0
ARC
  5
464
330
1B
100
AcDbEntity
  8
0
  6
Continuous
 62
     7
370
    25
100
AcDbCircle
 10
-38.0003936096
 20
-83.101455321
 30
0.0
 40
10.53481480658326
100
AcDbArc
 50
242.2895628643
 51
252.7104371357
  0
ARC
  5
465
330
1B
100
AcDbEntity
  8
0
  6
Continuous
 62
     7
370
    25
100
AcDbCircle
 10
38.0003936096
 20
-83.101455321
 30
0.0
 40
10.53481480658386
100
AcDbArc
 50
287.2895628643
 51
297.7104371357
  0
ARC
  5
466
330
1B
100
AcDbEntity
  8
0
  6
Continuous
 62
     7
370
    25
100
AcDbCircle
 10
38.0003936096
 20
83.101455321
 30
0.0
 40
10.534814806584
100
AcDbArc
 50
62.2895628643
 51
72.7104371357
  0
ARC
  5
467
330
1B
100
AcDbEntity
  8
0
  6
Continuous
 62
     7
370
    25
100
AcDbCircle
 10
53.101455321
 20
68.0003936096
 30
0.0
 40
10.53481480658323
100
AcDbArc
 50
17.2895628643
 51
27.7104371357
  0
ARC
  5
468
330
1B
100
AcDbEntity
  8
0
  6
Continuous
 62
     7
370
    25
100
AcDbCircle
 10
0.0
 20
40.0
 30
0.0
 40
21.24999999999972
100
AcDbArc
 50
329.57063657
 51
30.0109586776
  0
ARC
  5
469
330
1B
100
AcDbEntity
  8
0
  6
Continuous
 62
     7
370
    25
100
AcDbCircle
 10
0.0
 20
40.0
 30
0.0
 40
21.25
100
AcDbArc
 50
59.57063657
 51
120.0109586776
  0
ARC
  5
46A
330
1B
100
AcDbEntity
  8
0
  6
Continuous
 62
     7
370
    25
100
AcDbCircle
 10
0.0
 20
40.0
 30
0.0
 40
21.24999999999983
100
AcDbArc
 50
149.57063657
 51
210.0109586776
  0
ARC
  5
46B
330
1B
100
AcDbEntity
  8
0
  6
Continuous
 62
     7
370
    25
100
AcDbCircle
 10
0.0
 20
-40.0
 30
0.0
 40
21.24999999999988
100
AcDbArc
 50
149.8845580897
 51
210.3248801973
  0
ARC
  5
46C
330
1B
100
AcDbEntity
  8
0
  6
Continuous
 62
     7
370
    25
100
AcDbCircle
 10
0.0
 20
-40.0
 30
0.0
 40
21.25
100
AcDbArc
 50
239.8845580898
 51
300.5182129104
  0
ARC
  5
46D
330
1B
100
AcDbEntity
  8
0
  6
Continuous
 62
     7
370
    25
100
AcDbCircle
 10
0.0
 20
-40.0
 30
0.0
 40
21.24999999999993
100
AcDbArc
 50
329.8845580898
 51
30.3248801973
  0
ARC
  5
46E
330
1B
100
AcDbEntity
  8
0
  6
Continuous
 62
     7
370
    25
100
AcDbCircle
 10
0.0
 20
-40.0
 30
0.0
 40
21.25000000000011
100
AcDbArc
 50
59.8845580897
 51
79.4245940336
  0
ARC
  5
46F
330
1B
100
AcDbEntity
  8
0
  6
Continuous
 62
     7
370
    25
100
AcDbCircle
 10
0.0
 20
-40.0
 30
0.0
 40
21.2499999999997
100
AcDbArc
 50
100.5754059664
 51
120.3248801973
  0
ARC
  5
470
330
1B
100
AcDbEntity
  8
0
  6
Continuous
 62
     7
370
    25
100
AcDbCircle
 10
0.0
 20
40.0
 30
0.0
 40
21.24999999999996
100
AcDbArc
 50
239.57063657
 51
300.2042913907
  0
ARC
  5
471
330
1B
100
AcDbEntity
  8
0
  6
Continuous
 62
     7
370
    25
100
AcDbCircle
 10
-42.9289321881
 20
-95.0
 30
0.0
 40
5.000000000000393
100
AcDbArc
 50
225.0
 51
270.0
  0
ARC
  5
472
330
1B
100
AcDbEntity
  8
0
  6
Continuous
 62
     7
370
    25
100
AcDbCircle
 10
-65.0
 20
-72.9289321881
 30
0.0
 40
5.000000000001327
100
AcDbArc
 50
180.0
 51
225.0
  0
ARC
  5
473
330
1B
100
AcDbEntity
  8
0
  6
Continuous
 62
     7
370
    25
100
AcDbCircle
 10
65.0
 20
72.9289321881
 30
0.0
 40
4.99999999999994
100
AcDbArc
 50
0.0
 51
45.0
  0
ARC
  5
474
330
1B
100
AcDbEntity
  8
0
  6
Continuous
 62
     7
370
    25
100
AcDbCircle
 10
42.9289321881
 20
-95.0
 30
0.0
 40
5.000000000001307
100
AcDbArc
 50
270.0
 51
315.0
  0
ARC
  5
475
330
1B
100
AcDbEntity
  8
0
  6
Continuous
 62
     7
370
    25
100
AcDbCircle
 10
-42.9289321881
 20
95.0
 30
0.0
 40
4.99999999999995
100
AcDbArc
 50
90.0
 51
135.0
  0
ARC
  5
476
330
1B
100
AcDbEntity
  8
0
  6
Continuous
 62
     7
370
    25
100
AcDbCircle
 10
42.9289321881
 20
95.0
 30
0.0
 40
5.000000000001316
100
AcDbArc
 50
45.0
 51
90.0
  0
ARC
  5
477
330
1B
100
AcDbEntity
  8
0
  6
Continuous
 62
     7
370
    25
100
AcDbCircle
 10
65.0
 20
-72.9289321881
 30
0.0
 40
4.99999999999993
100
AcDbArc
 50
315.0
 51
0.0
  0
ARC
  5
478
330
1B
100
AcDbEntity
  8
0
  6
Continuous
 62
     7
370
    25
100
AcDbCircle
 10
-65.0
 20
72.9289321881
 30
0.0
 40
5.000000000001547
100
AcDbArc
 50
135.0
 51
180.0
  0
ARC
  5
479
330
1B
100
AcDbEntity
  8
0
  6
Continuous
 62
     7
370
    25
100
AcDbCircle
 10
0.0
 20
-24.605
 30
0.0
 40
8.105000000000057
100
AcDbArc
 50
63.4438719881
 51
116.5561280119
  0
ARC
  5
47A
330
1B
100
AcDbEntity
  8
0
  6
Continuous
 62
     7
370
    25
100
AcDbCircle
 10
0.0
 20
-40.0
 30
0.0
 40
21.00000000000144
100
AcDbArc
 50
185.0956936537
 51
195.0680510984
  0
ARC
  5
47B
330
1B
100
AcDbEntity
  8
0
  6
Continuous
 62
     7
370
    25
100
AcDbCircle
 10
0.0
 20
-40.0
 30
0.0
 40
21.00000000000104
100
AcDbArc
 50
174.247086021
 51
183.750414535
  0
ARC
  5
47C
330
1B
100
AcDbEntity
  8
0
  6
Continuous
 62
     7
370
    25
100
AcDbCircle
 10
0.0
 20
-39.9999999999
 30
0.0
 40
20.99999999992115
100
AcDbArc
 50
71.7977431142
 51
79.1069360407
  0
ARC
  5
47D
330
1B
100
AcDbEntity
  8
0
  6
Continuous
 62
     7
370
    25
100
AcDbCircle
 10
0.0
 20
-40.0
 30
0.0
 40
20.99999999999921
100
AcDbArc
 50
354.2483808577
 51
3.7504417019
  0
ARC
  5
47E
330
1B
100
AcDbEntity
  8
0
  6
Continuous
 62
     7
370
    25
100
AcDbCircle
 10
0.0
 20
-40.0
 30
0.0
 40
18.52289580398123
100
AcDbArc
 50
332.1222581311
 51
28.0871801559
  0
ARC
  5
47F
330
1B
100
AcDbEntity
  8
0
  6
Continuous
 62
     7
370
    25
100
AcDbCircle
 10
0.0
 20
-40.0
 30
0.0
 40
18.5228958039812
100
AcDbArc
 50
242.1222581311
 51
298.3785471158
  0
ARC
  5
480
330
1B
100
AcDbEntity
  8
0
  6
Continuous
 62
     7
370
    25
100
AcDbCircle
 10
0.0
 20
-40.0
 30
0.0
 40
18.52289580398131
100
AcDbArc
 50
152.1222581311
 51
208.0871801559
  0
ARC
  5
481
330
1B
100
AcDbEntity
  8
0
  6
Continuous
 62
     7
370
    25
100
AcDbCircle
 10
0.0
 20
-40.0
 30
0.0
 40
16.48174307118139
100
AcDbArc
 50
154.3072853748
 51
205.9021529122
  0
ARC
  5
482
330
1B
100
AcDbEntity
  8
0
  6
Continuous
 62
     7
370
    25
100
AcDbCircle
 10
0.0
 20
-40.0
 30
0.0
 40
16.48174307118139
100
AcDbArc
 50
244.3072853748
 51
296.2913821896
  0
ARC
  5
483
330
1B
100
AcDbEntity
  8
0
  6
Continuous
 62
     7
370
    25
100
AcDbCircle
 10
0.0
 20
-40.0
 30
0.0
 40
16.48174307118142
100
AcDbArc
 50
334.3072853748
 51
25.9021529122
  0
ARC
  5
484
330
1B
100
AcDbEntity
  8
0
  6
Continuous
 62
     7
370
    25
100
AcDbCircle
 10
0.0
 20
-40.0
 30
0.0
 40
16.48174307118145
100
AcDbArc
 50
64.3072853748
 51
115.9021529122
  0
ARC
  5
485
330
1B
100
AcDbEntity
  8
0
  6
Continuous
 62
     7
370
    25
100
AcDbCircle
 10
0.0
 20
-40.0
 30
0.0
 40
18.52289580398118
100
AcDbArc
 50
62.1222581311
 51
118.0871801559
  0
ARC
  5
486
330
1B
100
AcDbEntity
  8
0
  6
Continuous
 62
     7
370
    25
100
AcDbCircle
 10
0.0
 20
40.0
 30
0.0
 40
16.48174307118142
100
AcDbArc
 50
245.9912039849
 51
295.9774606699
  0
ARC
  5
487
330
1B
100
AcDbEntity
  8
0
  6
Continuous
 62
     7
370
    25
100
AcDbCircle
 10
0.0
 20
40.0
 30
0.0
 40
16.48174307118142
100
AcDbArc
 50
333.9933638551
 51
25.5882313925
  0
ARC
  5
488
330
1B
100
AcDbEntity
  8
0
  6
Continuous
 62
     7
370
    25
100
AcDbCircle
 10
0.0
 20
40.0
 30
0.0
 40
16.48174307118146
100
AcDbArc
 50
65.9912039849
 51
115.5882313925
  0
ARC
  5
489
330
1B
100
AcDbEntity
  8
0
  6
Continuous
 62
     7
370
    25
100
AcDbCircle
 10
0.0
 20
40.0
 30
0.0
 40
16.48174307118146
100
AcDbArc
 50
153.9933638551
 51
205.5882313925
  0
ARC
  5
48A
330
1B
100
AcDbEntity
  8
0
  6
Continuous
 62
     7
370
    25
100
AcDbCircle
 10
0.0
 20
40.0
 30
0.0
 40
18.52289580398125
100
AcDbArc
 50
331.8083366114
 51
27.7732586362
  0
ARC
  5
48B
330
1B
100
AcDbEntity
  8
0
  6
Continuous
 62
     7
370
    25
100
AcDbCircle
 10
0.0
 20
40.0
 30
0.0
 40
18.52289580398112
100
AcDbArc
 50
245.9912039849
 51
298.0646255961
  0
ARC
  5
48C
330
1B
100
AcDbEntity
  8
0
  6
Continuous
 62
     7
370
    25
100
AcDbCircle
 10
0.0
 20
40.0
 30
0.0
 40
18.52289580398125
100
AcDbArc
 50
151.8083366114
 51
207.7732586362
  0
ARC
  5
48D
330
1B
100
AcDbEntity
  8
0
  6
Continuous
 62
     7
370
    25
100
AcDbCircle
 10
0.0
 20
40.0
 30
0.0
 40
18.52289580398112
100
AcDbArc
 50
65.9912039849
 51
117.7732586362
  0
VIEWPORT
  5
6E0
330
1B
100
AcDbEntity
  8
0
100
AcDbViewport
 10
0.0
 20
0.0
 30
0.0
 40
205.6
 41
156.0
 68
     1
 69
     1
 12
0.0
 22
37.9645585551
 13
0.0
 23
0.0
 14
10.0
 24
10.0
 15
10.0
 25
10.0
 16
0.0
 26
0.0
 36
1.0
 17
0.0
 27
0.0
 37
0.0
 42
50.0
 43
0.0
 44
0.0
 45
109.446
 50
0.0
 51
0.0
 72
   100
 90
   557152
  1

281
     0
 71
     1
 74
     0
110
0.0
120
0.0
130
0.0
111
1.0
121
0.0
131
0.0
112
0.0
122
1.0
132
0.0
 79
     0
146
0.0
  0
ENDBLK
  5
1D
330
1B
100
AcDbEntity
  8
0
100
AcDbBlockEnd
  0
ENDSEC
  0
SECTION
  2
ENTITIES
  0
SPLINE
  5
77
330
1F
100
AcDbEntity
  8
0
  6
Continuous
 62
     7
370
    25
100
AcDbSpline
210
0.0
220
0.0
230
1.0
 70
     8
 71
     3
 72
     9
 73
     5
 74
     0
 42
0.000000001
 43
0.00000001
 40
0.0
 40
0.0
 40
0.0
 40
0.0
 40
0.3304295978140607
 40
1.0
 40
1.0
 40
1.0
 40
1.0
 10
20.98010311288396
 20
33.45704075731364
 30
0.0
 10
20.97568902152885
 20
33.50330483848818
 30
0.0
 10
20.96233037755658
 20
33.6433167547348
 30
0.0
 10
20.89256467206594
 20
33.76702717257917
 30
0.0
 10
20.84585162058179
 20
33.84986000680983
 30
0.0
  0
SPLINE
  5
78
330
1F
100
AcDbEntity
  8
0
  6
Continuous
 62
     7
370
    25
100
AcDbSpline
210
0.0
220
0.0
230
1.0
 70
     8
 71
     3
 72
     9
 73
     5
 74
     0
 42
0.000000001
 43
0.00000001
 40
0.0
 40
0.0
 40
0.0
 40
0.0
 40
0.5000000447597626
 40
1.0
 40
1.0
 40
1.0
 40
1.0
 10
-20.84583886860552
 20
33.84985482118601
 30
0.0
 10
-20.89041726589649
 20
33.76640496127762
 30
0.0
 10
-20.97957405249716
 20
33.59950525640159
 30
0.0
 10
-20.99319395321625
 20
33.41077545375877
 30
0.0
 10
-21.00000390296617
 20
33.31641056088488
 30
0.0
  0
SPLINE
  5
7A
330
1F
100
AcDbEntity
  8
0
  6
Continuous
 62
     7
370
    25
100
AcDbSpline
210
0.0
220
0.0
230
1.0
 70
     8
 71
     3
 72
    12
 73
     8
 74
     0
 42
0.000000001
 43
0.00000001
 40
0.0
 40
0.0
 40
0.0
 40
0.0
 40
0.1248161840288292
 40
0.2494819491239464
 40
0.3747920840609077
 40
0.500238723564064
 40
1.0
 40
1.0
 40
1.0
 40
1.0
 10
20.88571177242056
 20
33.79015896479913
 30
0.0
 10
20.65799701530682
 20
34.19165176468785
 30
0.0
 10
20.20284192551573
 20
34.99415351600189
 30
0.0
 10
19.77908247025804
 20
36.32323282880898
 30
0.0
 10
19.60510268410062
 20
37.70139426373572
 30
0.0
 10
19.45052903441452
 20
40.46697262554854
 30
0.0
 10
19.33946455211214
 20
42.77201668607786
 30
0.0
 10
19.25068492212495
 20
44.61455855505099
 30
0.0
  0
SPLINE
  5
7C
330
1F
100
AcDbEntity
  8
0
  6
Continuous
 62
     7
370
    25
100
AcDbSpline
210
0.0
220
0.0
230
1.0
 70
     8
 71
     3
 72
     9
 73
     5
 74
     0
 42
0.000000001
 43
0.00000001
 40
0.0
 40
0.0
 40
0.0
 40
0.0
 40
0.4999998360533487
 40
1.0
 40
1.0
 40
1.0
 40
1.0
 10
21.00001301178852
 20
33.32010009466462
 30
0.0
 10
20.99333206612556
 20
33.41358423880527
 30
0.0
 10
20.97997017041836
 20
33.60055258839223
 30
0.0
 10
20.8923943997296
 20
33.76628185437031
 30
0.0
 10
20.84860650002745
 20
33.8491465145301
 30
0.0
  0
SPLINE
  5
7D
330
1F
100
AcDbEntity
  8
0
  6
Continuous
 62
     7
370
    25
100
AcDbSpline
210
0.0
220
0.0
230
1.0
 70
     8
 71
     3
 72
     9
 73
     5
 74
     0
 42
0.000000001
 43
0.00000001
 40
0.0
 40
0.0
 40
0.0
 40
0.0
 40
0.5000002047960856
 40
1.0
 40
1.0
 40
1.0
 40
1.0
 10
-20.84858623344528
 20
33.84913962288286
 30
0.0
 10
-20.8923741920185
 20
33.76627496661185
 30
0.0
 10
-20.97995007329453
 20
33.60054572195125
 30
0.0
 10
-20.9933121410789
 20
33.41357734728426
 30
0.0
 10
-20.99999317223459
 20
33.32009319824115
 30
0.0
  0
SPLINE
  5
7F
330
1F
100
AcDbEntity
  8
0
  6
Continuous
 62
     7
370
    25
100
AcDbSpline
210
0.0
220
0.0
230
1.0
 70
     8
 71
     3
 72
    12
 73
     8
 74
     0
 42
0.000000001
 43
0.00000001
 40
0.0
 40
0.0
 40
0.0
 40
0.0
 40
0.4997612730118108
 40
0.6252077492634959
 40
0.7505181380079284
 40
0.8751839871208935
 40
1.0
 40
1.0
 40
1.0
 40
1.0
 10
-19.25068492212495
 20
44.61455855505099
 30
0.0
 10
-19.33945304547867
 20
42.77209649304304
 30
0.0
 10
-19.45050310398731
 20
40.4671528707625
 30
0.0
 10
-19.60509542402319
 20
37.7016979546969
 30
0.0
 10
-19.77900097181461
 20
36.32358909464673
 30
0.0
 10
-20.20268170864031
 20
34.99454824625442
 30
0.0
 10
-20.65777038259882
 20
34.1920559851
 30
0.0
 10
-20.88545167909222
 20
33.79056834345809
 30
0.0
  0
SPLINE
  5
C5
330
1F
100
AcDbEntity
  8
0
  6
Continuous
 62
     7
370
    25
100
AcDbSpline
210
0.0
220
0.0
230
1.0
 70
     8
 71
     3
 72
     9
 73
     5
 74
     0
 42
0.000000001
 43
0.00000001
 40
0.0
 40
0.0
 40
0.0
 40
0.0
 40
0.9226853701760978
 40
1.0
 40
1.0
 40
1.0
 40
1.0
 10
-19.25
 20
44.614558555051
 30
0.0
 10
-19.31404481637546
 20
42.56131242488752
 30
0.0
 10
-19.38345614383939
 20
40.33601852023656
 30
0.0
 10
-19.58882741265603
 20
38.12031576671055
 30
0.0
 10
-19.60470561628105
 20
37.94900952852188
 30
0.0
  0
SPLINE
  5
CA
330
1F
100
AcDbEntity
  8
0
  6
Continuous
 62
     7
370
    25
100
AcDbSpline
210
0.0
220
0.0
230
1.0
 70
     8
 71
     3
 72
     8
 73
     4
 74
     0
 42
0.000000001
 43
0.00000001
 40
0.0
 40
0.0
 40
0.0
 40
0.0
 40
1.0
 40
1.0
 40
1.0
 40
1.0
 10
-8.481688559869696
 20
33.8498583124271
 30
0.0
 10
-7.145180258703157
 20
33.8495879723425
 30
0.0
 10
-5.745816924329978
 20
33.84931764141581
 30
0.0
 10
-4.314516021264961
 20
33.84904731964853
 30
0.0
  0
SPLINE
  5
CB
330
1F
100
AcDbEntity
  8
0
  6
Continuous
 62
     7
370
    25
100
AcDbSpline
210
0.0
220
0.0
230
1.0
 70
     8
 71
     3
 72
    14
 73
    10
 74
     0
 42
0.000000001
 43
0.00000001
 40
0.0
 40
0.0
 40
0.0
 40
0.0
 40
0.5000000000000011
 40
0.6249999999999999
 40
0.6249999999999999
 40
0.6874999999999993
 40
0.6874999999999993
 40
0.7499999999999987
 40
1.0
 40
1.0
 40
1.0
 40
1.0
 10
-7.83238004117382
 20
44.614558555051
 30
0.0
 10
-7.858618761289212
 20
42.76786078903967
 30
0.0
 10
-7.903259694781509
 20
40.49999752878887
 30
0.0
 10
-7.964323105467851
 20
38.20645081333483
 30
0.0
 10
-7.983651766963029
 20
37.51570099679719
 30
0.0
 10
-7.991601475778505
 20
37.28554777607319
 30
0.0
 10
-8.017418709093329
 20
36.82982631940877
 30
0.0
 10
-8.101555762704256
 20
35.69962541191454
 30
0.0
 10
-8.28159060047743
 20
34.62964641068791
 30
0.0
 10
-8.481688559869683
 20
33.8498583124271
 30
0.0
  0
SPLINE
  5
CE
330
1F
100
AcDbEntity
  8
0
  6
Continuous
 62
     7
370
    25
100
AcDbSpline
210
0.0
220
0.0
230
1.0
 70
     8
 71
     3
 72
     8
 73
     4
 74
     0
 42
0.000000001
 43
0.00000001
 40
0.0
 40
0.0
 40
0.0
 40
0.0
 40
1.0
 40
1.0
 40
1.0
 40
1.0
 10
-4.34588163003096
 20
33.31695683639485
 30
0.0
 10
-5.78802758666109
 20
33.3167759792019
 30
0.0
 10
-7.197889474231057
 20
33.31659512200896
 30
0.0
 10
-8.544414590371519
 20
33.316414264816
 30
0.0
  0
SPLINE
  5
13A
330
1F
100
AcDbEntity
  8
0
  6
Continuous
 62
     8
370
    25
100
AcDbSpline
210
0.0
220
0.0
230
1.0
 70
    24
 71
     3
 72
    23
 73
    19
 74
     0
 42
0.000000001
 43
0.00000001
 40
0.0
 40
0.0
 40
0.0
 40
0.0
 40
0.065784989470474
 40
0.1315699789409493
 40
0.1973549684114246
 40
0.2631399578818996
 40
0.3289249473523747
 40
0.3947099368228499
 40
0.4604949262933252
 40
0.5262799157638004
 40
0.5920649052342754
 40
0.6578498947047507
 40
0.7236348841752259
 40
0.789419873645701
 40
0.8552048631161762
 40
0.9209898525866512
 40
0.9867748420571264
 40
0.9999999999999999
 40
0.9999999999999999
 40
0.9999999999999999
 40
0.9999999999999999
 10
-7.832380041173818
 20
44.614558555051
 30
0.0
 10
-7.052178250298225
 20
44.614558555051
 30
0.0
 10
-5.491774668547026
 20
44.61455855505099
 30
0.0
 10
-3.021294517315107
 20
44.614558555051
 30
0.0
 10
-0.508740950855058
 20
44.61455855505099
 30
0.0
 10
2.015095409402023
 20
44.61455855505099
 30
0.0
 10
4.50376231982542
 20
44.61455855505102
 30
0.0
 10
6.915552947954803
 20
44.61455855505098
 30
0.0
 10
9.20896979777192
 20
44.61455855505101
 30
0.0
 10
11.34482128154038
 20
44.614558555051
 30
0.0
 10
13.28659583622221
 20
44.61455855505099
 30
0.0
 10
15.00088595832909
 20
44.614558555051
 30
0.0
 10
16.45905903054591
 20
44.614558555051
 30
0.0
 10
17.63355106196063
 20
44.614558555051
 30
0.0
 10
18.51402378777767
 20
44.61455855505098
 30
0.0
 10
19.04899584293909
 20
44.61455855505102
 30
0.0
 10
19.28100351877911
 20
44.61455855505096
 30
0.0
 10
19.23177061985282
 20
44.614558555051
 30
0.0
 10
19.22352974338818
 20
44.614558555051
 30
0.0
  0
SPLINE
  5
13B
330
1F
100
AcDbEntity
  8
0
  6
Continuous
 62
     8
370
    25
100
AcDbSpline
210
0.0
220
0.0
230
1.0
 70
     8
 71
     3
 72
    17
 73
    13
 74
     0
 42
0.000000001
 43
0.00000001
 40
0.0
 40
0.0
 40
0.0
 40
0.0
 40
0.1029063212513263
 40
0.2059944000254032
 40
0.3087293292038674
 40
0.4119734328274396
 40
0.5145808650145393
 40
0.6178609909355808
 40
0.7204394628698155
 40
0.8236709503585601
 40
0.9263242515717074
 40
0.9999999999999999
 40
0.9999999999999999
 40
0.9999999999999999
 40
0.9999999999999999
 10
-4.314516021264991
 20
33.84904731964851
 30
0.0
 10
-3.05546757275429
 20
33.84960526912702
 30
0.0
 10
-0.5351468907968289
 20
33.85072215355815
 30
0.0
 10
3.299162073602145
 20
33.84483223020874
 30
0.0
 10
7.016965199643186
 20
33.85041403049715
 30
0.0
 10
10.49640524997728
 20
33.84528707151461
 30
0.0
 10
13.62983720078201
 20
33.84956909576298
 30
0.0
 10
16.29840392631626
 20
33.84898774676298
 30
0.0
 10
18.4330739754234
 20
33.84963223333187
 30
0.0
 10
19.92441538941632
 20
33.84924706716383
 30
0.0
 10
20.75625096414029
 20
33.84963080600208
 30
0.0
 10
20.77090032908808
 20
33.84886721459235
 30
0.0
 10
20.77702128833286
 20
33.84854816240714
 30
0.0
  0
SPLINE
  5
13C
330
1F
100
AcDbEntity
  8
0
  6
Continuous
 62
     8
370
    25
100
AcDbSpline
210
0.0
220
0.0
230
1.0
 70
     8
 71
     3
 72
    44
 73
    40
 74
     0
 42
0.000000001
 43
0.00000001
 40
0.0
 40
0.0
 40
0.0
 40
0.0
 40
0.0290929857667404
 40
0.0585104058528516
 40
0.0879278284330256
 40
0.117345255360471
 40
0.146762688488396
 40
0.1761801296700078
 40
0.1995515636907535
 40
0.2273039513460019
 40
0.2594368779704949
 40
0.2959498599279606
 40
0.3368423456668671
 40
0.382113716269941
 40
0.4849740382146496
 40
0.5878343419976811
 40
0.6025885483410395
 40
0.6173427544795103
 40
0.6320969616327583
 40
0.6468511710204473
 40
0.6616053838622409
 40
0.6763596013778014
 40
0.691113824786792
 40
0.7016434165213707
 40
0.7128138669376799
 40
0.7276236645927098
 40
0.7460726548106283
 40
0.7681606445578233
 40
0.7938874025770299
 40
0.8110803523108728
 40
0.828273296934291
 40
0.8454662396511549
 40
0.8626591836653352
 40
0.8798521321807019
 40
0.897045088401122
 40
0.9113216761494374
 40
0.9332404188457549
 40
0.9628003140430685
 40
1.0
 40
1.0
 40
1.0
 40
1.0
 10
20.99968648348412
 20
33.32004477394199
 30
0.0
 10
20.99440164561871
 20
33.3200778781065
 30
0.0
 10
20.98377303531206
 20
33.32014445560102
 30
0.0
 10
20.89519054418435
 20
33.31989512318513
 30
0.0
 10
20.75332316628027
 20
33.31939288815641
 30
0.0
 10
20.55350465735529
 20
33.31859652828884
 30
0.0
 10
20.2977271915545
 20
33.31757397822572
 30
0.0
 10
20.00762770805251
 20
33.31619691986062
 30
0.0
 10
19.67865134038406
 20
33.31517092127465
 30
0.0
 10
19.29435760534675
 20
33.31485177102613
 30
0.0
 10
18.79059904859884
 20
33.31491591821526
 30
0.0
 10
18.14357412994955
 20
33.3154406734467
 30
0.0
 10
17.32785766775949
 20
33.31637077233323
 30
0.0
 10
15.92232018445691
 20
33.31845639000878
 30
0.0
 10
13.73149128232791
 20
33.32058122667548
 30
0.0
 10
11.47708124648204
 20
33.32026093053097
 30
0.0
 10
10.04001515215407
 20
33.31983252412164
 30
0.0
 10
9.552499685214007
 20
33.31989493691258
 30
0.0
 10
9.058422890989869
 20
33.32010515010267
 30
0.0
 10
8.558103763951474
 20
33.32046915523431
 30
0.0
 10
8.05189223178936
 20
33.32102085285972
 30
0.0
 10
7.540136554227147
 20
33.32161864916689
 30
0.0
 10
7.072525371772751
 20
33.32268274081812
 30
0.0
 10
6.643366164783954
 20
33.32265676792792
 30
0.0
 10
6.210772805680188
 20
33.32236483290206
 30
0.0
 10
5.680531880725135
 20
33.32192059240668
 30
0.0
 10
5.014428519935382
 20
33.32126555483124
 30
0.0
 10
4.209766569521216
 20
33.32042650304161
 30
0.0
 10
3.413337903509448
 20
33.31948968911657
 30
0.0
 10
2.672448160325042
 20
33.31876896619463
 30
0.0
 10
2.034226060720707
 20
33.31847669246596
 30
0.0
 10
1.39410511804247
 20
33.31844309122416
 30
0.0
 10
0.7526798228012953
 20
33.31871192690471
 30
0.0
 10
0.1105503045494081
 20
33.31917560210238
 30
0.0
 10
-0.4953671728213315
 20
33.32016164776918
 30
0.0
 10
-1.159664633594203
 20
33.32043120530199
 30
0.0
 10
-1.976387959035137
 20
33.31983665926079
 30
0.0
 10
-3.074312302928275
 20
33.31871022511907
 30
0.0
 10
-3.890876694394941
 20
33.31758425049379
 30
0.0
 10
-4.345881630030929
 20
33.31695683639485
 30
0.0
  0
SPLINE
  5
13D
330
1F
100
AcDbEntity
  8
0
  6
Continuous
 62
     8
370
    25
100
AcDbSpline
210
0.0
220
0.0
230
1.0
 70
     8
 71
     3
 72
    36
 73
    32
 74
     0
 42
0.000000001
 43
0.00000001
 40
0.0
 40
0.0
 40
0.0
 40
0.0
 40
0.0748818570457365
 40
0.1441793601344025
 40
0.2078917939099951
 40
0.266018501527765
 40
0.3185588849459597
 40
0.3413424092829511
 40
0.3641259272568045
 40
0.3869094418497782
 40
0.4096929560441317
 40
0.4324764728221246
 40
0.4552599951660153
 40
0.4780435260580603
 40
0.4825469083307242
 40
0.4975005195621827
 40
0.5222919340993816
 40
0.5364685818760393
 40
0.5525885553657436
 40
0.5706518343974294
 40
0.590658396363071
 40
0.6126082162190356
 40
0.6365012664868989
 40
0.6744752036572972
 40
0.7276184532151735
 40
0.7959269727273655
 40
0.8446182809175127
 40
0.8974662566258045
 40
0.9544706077845135
 40
0.9999107377902923
 40
0.9999999999999999
 40
0.9999999999999999
 40
0.9999999999999999
 40
0.9999999999999999
 10
-8.54441459037144
 20
33.31641426481601
 30
0.0
 10
-9.089902167654564
 20
33.31643855501905
 30
0.0
 10
-10.14019729863549
 20
33.31648532397048
 30
0.0
 10
-11.57133134408552
 20
33.3168923547927
 30
0.0
 10
-12.82558369292035
 20
33.31756609240756
 30
0.0
 10
-13.90854387819444
 20
33.31847429684406
 30
0.0
 10
-14.69200825230294
 20
33.31957702990123
 30
0.0
 10
-15.24355758623237
 20
33.32039131184332
 30
0.0
 10
-15.61734122662205
 20
33.32070606179872
 30
0.0
 10
-15.98036985510458
 20
33.32083347752733
 30
0.0
 10
-16.33239927378408
 20
33.32076675267285
 30
0.0
 10
-16.67318617405325
 20
33.32046789383273
 30
0.0
 10
-17.00249420784455
 20
33.32009568101754
 30
0.0
 10
-17.23516075217658
 20
33.31933185258399
 30
0.0
 10
-17.42702221255245
 20
33.31926450945802
 30
0.0
 10
-17.62469925608999
 20
33.31951317184423
 30
0.0
 10
-17.85727322201748
 20
33.31979536333463
 30
0.0
 10
-18.08637202883834
 20
33.32013870926006
 30
0.0
 10
-18.28163880836165
 20
33.32044763126859
 30
0.0
 10
-18.4929641075914
 20
33.3208048229618
 30
0.0
 10
-18.71768979470362
 20
33.32121496206402
 30
0.0
 10
-18.95281995377637
 20
33.32165052950847
 30
0.0
 10
-19.23601446888312
 20
33.32232946404073
 30
0.0
 10
-19.59445571680479
 20
33.32251028476506
 30
0.0
 10
-20.02853934366792
 20
33.3218528425842
 30
0.0
 10
-20.40077899170099
 20
33.32055580894618
 30
0.0
 10
-20.6818509102229
 20
33.31952532697738
 30
0.0
 10
-20.87301651376649
 20
33.3193250955082
 30
0.0
 10
-20.97259562977548
 20
33.3196559030431
 30
0.0
 10
-21.00953099061228
 20
33.32003423580922
 30
0.0
 10
-20.99996238008853
 20
33.32004821569198
 30
0.0
 10
-20.99994362044168
 20
33.32004824310011
 30
0.0
  0
SPLINE
  5
13E
330
1F
100
AcDbEntity
  8
0
  6
Continuous
 62
     8
370
    25
100
AcDbSpline
210
0.0
220
0.0
230
1.0
 70
     8
 71
     3
 72
    14
 73
    10
 74
     0
 42
0.000000001
 43
0.00000001
 40
0.0
 40
0.0
 40
0.0
 40
0.0
 40
0.0459563624705949
 40
0.204528162637889
 40
0.3640690351562935
 40
0.5225516719096178
 40
0.6820850526233946
 40
0.8405923950296668
 40
1.0
 40
1.0
 40
1.0
 40
1.0
 10
-20.77660253235881
 20
33.84851083171746
 30
0.0
 10
-20.79762838511947
 20
33.8483954540405
 30
0.0
 10
-20.89120365526371
 20
33.84788196726718
 30
0.0
 10
-20.35312529418658
 20
33.84617956230778
 30
0.0
 10
-19.16281451403749
 20
33.84965025939194
 30
0.0
 10
-17.27594097523698
 20
33.84521104649519
 30
0.0
 10
-14.82465440180248
 20
33.85101673695529
 30
0.0
 10
-11.88886605618223
 20
33.84833068149442
 30
0.0
 10
-9.619557399706375
 20
33.84934582314036
 30
0.0
 10
-8.4816899894058
 20
33.84985483128803
 30
0.0
  0
SPLINE
  5
13F
330
1F
100
AcDbEntity
  8
0
  6
Continuous
 62
     8
370
    25
100
AcDbSpline
210
0.0
220
0.0
230
1.0
 70
    24
 71
     3
 72
    16
 73
    12
 74
     0
 42
0.000000001
 43
0.00000001
 40
0.0
 40
0.0
 40
0.0
 40
0.0
 40
0.0906367995305215
 40
0.2043071995892051
 40
0.3179775996478903
 40
0.4316479997065746
 40
0.5453183997652592
 40
0.6589887998239442
 40
0.7726591998826285
 40
0.8863295999413131
 40
1.0
 40
1.0
 40
1.0
 40
1.0
 10
-19.22337229968996
 20
44.614558555051
 30
0.0
 10
-19.21372276551339
 20
44.614558555051
 30
0.0
 10
-19.19197145351686
 20
44.614558555051
 30
0.0
 10
-18.76612645053219
 20
44.614558555051
 30
0.0
 10
-18.02553928293572
 20
44.614558555051
 30
0.0
 10
-16.96660880647192
 20
44.614558555051
 30
0.0
 10
-15.61986154498327
 20
44.614558555051
 30
0.0
 10
-14.00582907318269
 20
44.614558555051
 30
0.0
 10
-12.14976658163789
 20
44.614558555051
 30
0.0
 10
-10.09538886857361
 20
44.61455855505099
 30
0.0
 10
-8.586716316973757
 20
44.614558555051
 30
0.0
 10
-7.832380041173818
 20
44.614558555051
 30
0.0
  0
LINE
  5
141
330
1F
100
AcDbEntity
  8
0
  6
Continuous
 62
     7
370
    25
100
AcDbLine
 10
-21.0
 20
31.3145585551
 30
0.0
 11
-21.0
 21
26.6145585551
 31
0.0
  0
LINE
  5
142
330
1F
100
AcDbEntity
  8
0
  6
Continuous
 62
     7
370
    25
100
AcDbLine
 10
-21.0
 20
20.6145585551
 30
0.0
 11
-21.0
 21
-15.6854414449
 31
0.0
  0
LINE
  5
143
330
1F
100
AcDbEntity
  8
0
  6
Continuous
 62
     7
370
    25
100
AcDbLine
 10
21.0
 20
-15.6854414449
 30
0.0
 11
21.0
 21
20.6145585551
 31
0.0
  0
LINE
  5
144
330
1F
100
AcDbEntity
  8
0
  6
Continuous
 62
     7
370
    25
100
AcDbLine
 10
21.0
 20
26.6145585551
 30
0.0
 11
21.0
 21
31.3145585551
 31
0.0
  0
LINE
  5
145
330
1F
100
AcDbEntity
  8
0
  6
Continuous
 62
     7
370
    25
100
AcDbLine
 10
19.2504762109
 20
44.6009216605
 30
0.0
 11
18.522895804
 21
65.4360984753
 31
0.0
  0
LINE
  5
146
330
1F
100
AcDbEntity
  8
0
  6
Continuous
 62
     7
370
    25
100
AcDbLine
 10
21.0
 20
31.6145585551
 30
0.0
 11
21.0
 21
33.3333276475
 31
0.0
  0
LINE
  5
147
330
1F
100
AcDbEntity
  8
0
  6
Continuous
 62
     7
370
    25
100
AcDbLine
 10
-21.0
 20
33.3332460928
 30
0.0
 11
-21.0
 21
31.6145585551
 31
0.0
  0
LINE
  5
148
330
1F
100
AcDbEntity
  8
0
  6
Continuous
 62
     7
370
    25
100
AcDbLine
 10
18.522895804
 20
65.4360984753
 30
0.0
 11
16.4817430712
 21
66.6145585551
 31
0.0
  0
LINE
  5
149
330
1F
100
AcDbEntity
  8
0
  6
Continuous
 62
     7
370
    25
100
AcDbLine
 10
-18.522895804
 20
65.4360984753
 30
0.0
 11
-19.2504762109
 21
44.6009216605
 31
0.0
  0
LINE
  5
14A
330
1F
100
AcDbEntity
  8
0
  6
Continuous
 62
     7
370
    25
100
AcDbLine
 10
-16.4817430712
 20
66.6145585551
 30
0.0
 11
-18.522895804
 21
65.4360984753
 31
0.0
  0
LINE
  5
14B
330
1F
100
AcDbEntity
  8
0
  6
Continuous
 62
     7
370
    25
100
AcDbLine
 10
-7.5
 20
74.1145585551
 30
0.0
 11
-6.0
 21
72.6145585551
 31
0.0
  0
LINE
  5
14C
330
1F
100
AcDbEntity
  8
0
  6
Continuous
 62
     7
370
    25
100
AcDbLine
 10
-7.5
 20
81.6145585551
 30
0.0
 11
-7.5
 21
74.1145585551
 31
0.0
  0
LINE
  5
14D
330
1F
100
AcDbEntity
  8
0
  6
Continuous
 62
     7
370
    25
100
AcDbLine
 10
-6.0
 20
72.6145585551
 30
0.0
 11
-6.0
 21
66.6145585551
 31
0.0
  0
LINE
  5
14E
330
1F
100
AcDbEntity
  8
0
  6
Continuous
 62
     7
370
    25
100
AcDbLine
 10
7.5
 20
74.1145585551
 30
0.0
 11
7.5
 21
81.6145585551
 31
0.0
  0
LINE
  5
14F
330
1F
100
AcDbEntity
  8
0
  6
Continuous
 62
     7
370
    25
100
AcDbLine
 10
6.0
 20
72.6145585551
 30
0.0
 11
7.5
 21
74.1145585551
 31
0.0
  0
LINE
  5
150
330
1F
100
AcDbEntity
  8
0
  6
Continuous
 62
     7
370
    25
100
AcDbLine
 10
6.0
 20
66.6145585551
 30
0.0
 11
6.0
 21
72.6145585551
 31
0.0
  0
LINE
  5
151
330
1F
100
AcDbEntity
  8
0
  6
Continuous
 62
     7
370
    25
100
AcDbLine
 10
46.4644660941
 20
21.9957564015
 30
0.0
 11
46.4644660941
 21
20.6145585551
 31
0.0
  0
LINE
  5
152
330
1F
100
AcDbEntity
  8
0
  6
Continuous
 62
     7
370
    25
100
AcDbLine
 10
70.0
 20
20.6145585551
 30
0.0
 11
-70.0
 21
20.6145585551
 31
0.0
  0
LINE
  5
153
330
1F
100
AcDbEntity
  8
0
  6
Continuous
 62
     7
370
    25
100
AcDbLine
 10
42.9289321881
 20
20.6145585551
 30
0.0
 11
42.9289321881
 21
21.9957564015
 31
0.0
  0
LINE
  5
154
330
1F
100
AcDbEntity
  8
0
  6
Continuous
 62
     7
370
    25
100
AcDbLine
 10
-41.1313505534
 20
25.944685574
 30
0.0
 11
-43.9231125887
 21
22.0533968547
 31
0.0
  0
LINE
  5
155
330
1F
100
AcDbEntity
  8
0
  6
Continuous
 62
     7
370
    25
100
AcDbLine
 10
41.1313505534
 20
25.944685574
 30
0.0
 11
-41.1313505534
 21
25.944685574
 31
0.0
  0
LINE
  5
156
330
1F
100
AcDbEntity
  8
0
  6
Continuous
 62
     7
370
    25
100
AcDbLine
 10
43.9231125887
 20
22.0533968547
 30
0.0
 11
41.1313505534
 21
25.944685574
 31
0.0
  0
LINE
  5
157
330
1F
100
AcDbEntity
  8
0
  6
Continuous
 62
     7
370
    25
100
AcDbLine
 10
42.9289321881
 20
21.9957564015
 30
0.0
 11
-42.9289321881
 21
21.9957564015
 31
0.0
  0
LINE
  5
158
330
1F
100
AcDbEntity
  8
0
  6
Continuous
 62
     7
370
    25
100
AcDbLine
 10
-42.9289321881
 20
21.9957564015
 30
0.0
 11
-42.9289321881
 21
20.6145585551
 31
0.0
  0
LINE
  5
159
330
1F
100
AcDbEntity
  8
0
  6
Continuous
 62
     7
370
    25
100
AcDbLine
 10
-46.4644660941
 20
20.6145585551
 30
0.0
 11
-46.4644660941
 21
21.9957564015
 31
0.0
  0
LINE
  5
15A
330
1F
100
AcDbEntity
  8
0
  6
Continuous
 62
     7
370
    25
100
AcDbLine
 10
42.8991175063
 20
25.944685574
 30
0.0
 11
45.6908795417
 21
22.0533968547
 31
0.0
  0
LINE
  5
15B
330
1F
100
AcDbEntity
  8
0
  6
Continuous
 62
     7
370
    25
100
AcDbLine
 10
-45.6908795417
 20
22.0533968547
 30
0.0
 11
-42.8991175063
 21
25.944685574
 31
0.0
  0
LINE
  5
15C
330
1F
100
AcDbEntity
  8
0
  6
Continuous
 62
     7
370
    25
100
AcDbLine
 10
62.4280209908
 20
25.944685574
 30
0.0
 11
42.8991175063
 21
25.944685574
 31
0.0
  0
LINE
  5
15D
330
1F
100
AcDbEntity
  8
0
  6
Continuous
 62
     7
370
    25
100
AcDbLine
 10
69.1679307595
 20
22.0533968547
 30
0.0
 11
62.4280209908
 21
25.944685574
 31
0.0
  0
LINE
  5
15E
330
1F
100
AcDbEntity
  8
0
  6
Continuous
 62
     7
370
    25
100
AcDbLine
 10
68.5355339059
 20
21.9957564015
 30
0.0
 11
46.4644660941
 21
21.9957564015
 31
0.0
  0
LINE
  5
15F
330
1F
100
AcDbEntity
  8
0
  6
Continuous
 62
     7
370
    25
100
AcDbLine
 10
-62.4280209908
 20
25.944685574
 30
0.0
 11
-69.1679307595
 21
22.0533968547
 31
0.0
  0
LINE
  5
160
330
1F
100
AcDbEntity
  8
0
  6
Continuous
 62
     7
370
    25
100
AcDbLine
 10
-42.8991175063
 20
25.944685574
 30
0.0
 11
-62.4280209908
 21
25.944685574
 31
0.0
  0
LINE
  5
161
330
1F
100
AcDbEntity
  8
0
  6
Continuous
 62
     7
370
    25
100
AcDbLine
 10
-46.4644660941
 20
21.9957564015
 30
0.0
 11
-68.5355339059
 21
21.9957564015
 31
0.0
  0
LINE
  5
162
330
1F
100
AcDbEntity
  8
0
  6
Continuous
 62
     7
370
    25
100
AcDbLine
 10
-68.5355339059
 20
21.9957564015
 30
0.0
 11
-68.5355339059
 21
20.6145585551
 31
0.0
  0
LINE
  5
163
330
1F
100
AcDbEntity
  8
0
  6
Continuous
 62
     7
370
    25
100
AcDbLine
 10
68.5355339059
 20
20.6145585551
 30
0.0
 11
68.5355339059
 21
21.9957564015
 31
0.0
  0
LINE
  5
164
330
1F
100
AcDbEntity
  8
0
  6
Continuous
 62
     7
370
    25
100
AcDbLine
 10
-41.1313505534
 20
26.6145585551
 30
0.0
 11
-41.1313505534
 21
25.944685574
 31
0.0
  0
LINE
  5
165
330
1F
100
AcDbEntity
  8
0
  6
Continuous
 62
     7
370
    25
100
AcDbLine
 10
41.1313505534
 20
26.6145585551
 30
0.0
 11
41.1313505534
 21
25.944685574
 31
0.0
  0
LINE
  5
166
330
1F
100
AcDbEntity
  8
0
  6
Continuous
 62
     7
370
    25
100
AcDbLine
 10
-60.6602540378
 20
26.6145585551
 30
0.0
 11
60.6602540378
 21
26.6145585551
 31
0.0
  0
LINE
  5
167
330
1F
100
AcDbEntity
  8
0
  6
Continuous
 62
     7
370
    25
100
AcDbLine
 10
-70.0
 20
20.6145585551
 30
0.0
 11
-70.0
 21
21.9957564015
 31
0.0
  0
LINE
  5
168
330
1F
100
AcDbEntity
  8
0
  6
Continuous
 62
     7
370
    25
100
AcDbLine
 10
-70.0
 20
21.9957564015
 30
0.0
 11
-63.1602540378
 21
25.944685574
 31
0.0
  0
LINE
  5
169
330
1F
100
AcDbEntity
  8
0
  6
Continuous
 62
     7
370
    25
100
AcDbLine
 10
63.1602540378
 20
25.944685574
 30
0.0
 11
70.0
 21
21.9957564015
 31
0.0
  0
LINE
  5
16A
330
1F
100
AcDbEntity
  8
0
  6
Continuous
 62
     7
370
    25
100
AcDbLine
 10
70.0
 20
21.9957564015
 30
0.0
 11
70.0
 21
20.6145585551
 31
0.0
  0
LINE
  5
16B
330
1F
100
AcDbEntity
  8
0
  6
Continuous
 62
     7
370
    25
100
AcDbLine
 10
21.0
 20
31.3145585551
 30
0.0
 11
-21.0
 21
31.3145585551
 31
0.0
  0
LINE
  5
16C
330
1F
100
AcDbEntity
  8
0
  6
Continuous
 62
     7
370
    25
100
AcDbLine
 10
-21.0
 20
-15.6854414449
 30
0.0
 11
21.0
 21
-15.6854414449
 31
0.0
  0
LINE
  5
16D
330
1F
100
AcDbEntity
  8
0
  6
Continuous
 62
     7
370
    25
100
AcDbLine
 10
-20.6578763954
 20
34.2263607714
 30
0.0
 11
-20.8458353552
 21
33.8498583124
 31
0.0
  0
LINE
  5
16E
330
1F
100
AcDbEntity
  8
0
  6
Continuous
 62
     7
370
    25
100
AcDbLine
 10
-7.5365381506
 20
65.4360984753
 30
0.0
 11
-7.8323800412
 21
44.6145585551
 31
0.0
  0
LINE
  5
16F
330
1F
100
AcDbEntity
  8
0
  6
Continuous
 62
     7
370
    25
100
AcDbLine
 10
18.522895804
 20
65.4360984753
 30
0.0
 11
-18.522895804
 21
65.4360984753
 31
0.0
  0
LINE
  5
170
330
1F
100
AcDbEntity
  8
0
  6
Continuous
 62
     7
370
    25
100
AcDbLine
 10
-21.0
 20
31.6145585551
 30
0.0
 11
21.0
 21
31.6145585551
 31
0.0
  0
LINE
  5
171
330
1F
100
AcDbEntity
  8
0
  6
Continuous
 62
     7
370
    25
100
AcDbLine
 10
-8.5444145904
 20
33.3164142648
 30
0.0
 11
-8.5444145904
 21
31.6145585551
 31
0.0
  0
LINE
  5
172
330
1F
100
AcDbEntity
  8
0
  6
Continuous
 62
     7
370
    25
100
AcDbLine
 10
-6.7060402844
 20
66.6145585551
 30
0.0
 11
-7.5365381506
 21
65.4360984753
 31
0.0
  0
LINE
  5
173
330
1F
100
AcDbEntity
  8
0
  6
Continuous
 62
     7
370
    25
100
AcDbLine
 10
-16.4817430712
 20
66.6145585551
 30
0.0
 11
16.4817430712
 21
66.6145585551
 31
0.0
  0
LINE
  5
174
330
1F
100
AcDbEntity
  8
0
  6
Continuous
 62
     7
370
    25
100
AcDbLine
 10
24.5587849908
 20
90.6254253845
 30
0.0
 11
24.5579196953
 21
90.6200366597
 31
0.0
  0
LINE
  5
175
330
1F
100
AcDbEntity
  8
0
  6
Continuous
 62
     7
370
    25
100
AcDbLine
 10
24.5579196953
 20
90.6200366597
 30
0.0
 11
18.2985641403
 21
90.6200366597
 31
0.0
  0
LINE
  5
176
330
1F
100
AcDbEntity
  8
0
  6
Continuous
 62
     7
370
    25
100
AcDbLine
 10
18.2985641403
 20
90.6200366597
 30
0.0
 11
18.2916275119
 21
90.6254253845
 31
0.0
  0
LINE
  5
177
330
1F
100
AcDbEntity
  8
0
  6
Continuous
 62
     7
370
    25
100
AcDbLine
 10
18.2916275119
 20
90.6254253845
 30
0.0
 11
17.8968973926
 21
91.6145585551
 31
0.0
  0
LINE
  5
178
330
1F
100
AcDbEntity
  8
0
  6
Continuous
 62
     7
370
    25
100
AcDbLine
 10
24.5587849908
 20
90.6254253845
 30
0.0
 11
23.8293264621
 21
91.6145585551
 31
0.0
  0
LINE
  5
179
330
1F
100
AcDbEntity
  8
0
  6
Continuous
 62
     7
370
    25
100
AcDbLine
 10
16.8730676778
 20
82.7320071333
 30
0.0
 11
17.036427467
 21
82.6036917256
 31
0.0
  0
LINE
  5
17A
330
1F
100
AcDbEntity
  8
0
  6
Continuous
 62
     7
370
    25
100
AcDbLine
 10
16.8730676778
 20
82.7320071333
 30
0.0
 11
16.8687866627
 21
90.6200366597
 31
0.0
  0
LINE
  5
17B
330
1F
100
AcDbEntity
  8
0
  6
Continuous
 62
     7
370
    25
100
AcDbLine
 10
16.8757944609
 20
90.6254253845
 30
0.0
 11
16.8687866627
 21
90.6200366597
 31
0.0
  0
LINE
  5
17C
330
1F
100
AcDbEntity
  8
0
  6
Continuous
 62
     7
370
    25
100
AcDbLine
 10
18.2916275119
 20
90.6254253845
 30
0.0
 11
16.8757944609
 21
90.6254253845
 31
0.0
  0
LINE
  5
17D
330
1F
100
AcDbEntity
  8
0
  6
Continuous
 62
     7
370
    25
100
AcDbLine
 10
18.2985641403
 20
90.6200366597
 30
0.0
 11
18.3028451553
 21
82.7320071333
 31
0.0
  0
LINE
  5
17E
330
1F
100
AcDbEntity
  8
0
  6
Continuous
 62
     7
370
    25
100
AcDbLine
 10
18.1414185336
 20
82.6036917256
 30
0.0
 11
18.3028451553
 21
82.7320071333
 31
0.0
  0
LINE
  5
17F
330
1F
100
AcDbEntity
  8
0
  6
Continuous
 62
     7
370
    25
100
AcDbLine
 10
17.036427467
 20
82.6036917256
 30
0.0
 11
18.1414185336
 21
82.6036917256
 31
0.0
  0
LINE
  5
180
330
1F
100
AcDbEntity
  8
0
  6
Continuous
 62
     7
370
    25
100
AcDbLine
 10
17.2802927928
 20
91.6145585551
 30
0.0
 11
16.8757944609
 21
90.6254253845
 31
0.0
  0
LINE
  5
181
330
1F
100
AcDbEntity
  8
0
  6
Continuous
 62
     7
370
    25
100
AcDbLine
 10
23.3854521038
 20
82.7320071333
 30
0.0
 11
24.5579196953
 21
90.6200366597
 31
0.0
  0
LINE
  5
182
330
1F
100
AcDbEntity
  8
0
  6
Continuous
 62
     7
370
    25
100
AcDbLine
 10
18.3028451553
 20
82.7320071333
 30
0.0
 11
23.3854521038
 21
82.7320071333
 31
0.0
  0
LINE
  5
183
330
1F
100
AcDbEntity
  8
0
  6
Continuous
 62
     7
370
    25
100
AcDbLine
 10
2.0566654438
 20
91.6145585551
 30
0.0
 11
1.7201410869
 21
90.6200366597
 31
0.0
  0
LINE
  5
184
330
1F
100
AcDbEntity
  8
0
  6
Continuous
 62
     7
370
    25
100
AcDbLine
 10
1.7201410869
 20
90.6200366597
 30
0.0
 11
2.0665760286
 21
82.7320071333
 31
0.0
  0
LINE
  5
185
330
1F
100
AcDbEntity
  8
0
  6
Continuous
 62
     7
370
    25
100
AcDbLine
 10
-17.4582059922
 20
91.6145585551
 30
0.0
 11
-17.0634758729
 21
90.6254253845
 31
0.0
  0
LINE
  5
186
330
1F
100
AcDbEntity
  8
0
  6
Continuous
 62
     7
370
    25
100
AcDbLine
 10
-23.9640752708
 20
91.6145585551
 30
0.0
 11
23.9640752708
 21
91.6145585551
 31
0.0
  0
LINE
  5
187
330
1F
100
AcDbEntity
  8
0
  6
Continuous
 62
     7
370
    25
100
AcDbLine
 10
-2.1195813991
 20
91.6145585551
 30
0.0
 11
-1.7889381152
 21
90.6200366597
 31
0.0
  0
LINE
  5
188
330
1F
100
AcDbEntity
  8
0
  6
Continuous
 62
     7
370
    25
100
AcDbLine
 10
16.8687866627
 20
90.6200366597
 30
0.0
 11
-17.0565392446
 21
90.6200366597
 31
0.0
  0
LINE
  5
189
330
1F
100
AcDbEntity
  8
0
  6
Continuous
 62
     7
370
    25
100
AcDbLine
 10
-17.0565392446
 20
90.6200366597
 30
0.0
 11
-17.0634758729
 21
90.6254253845
 31
0.0
  0
LINE
  5
18A
330
1F
100
AcDbEntity
  8
0
  6
Continuous
 62
     7
370
    25
100
AcDbLine
 10
-17.0634758729
 20
90.6254253845
 30
0.0
 11
-18.479308924
 21
90.6254253845
 31
0.0
  0
LINE
  5
18B
330
1F
100
AcDbEntity
  8
0
  6
Continuous
 62
     7
370
    25
100
AcDbLine
 10
-18.074810592
 20
91.6145585551
 30
0.0
 11
-18.479308924
 21
90.6254253845
 31
0.0
  0
LINE
  5
18C
330
1F
100
AcDbEntity
  8
0
  6
Continuous
 62
     7
370
    25
100
AcDbLine
 10
-18.4820357071
 20
82.7320071333
 30
0.0
 11
-18.3186759179
 21
82.6036917256
 31
0.0
  0
LINE
  5
18D
330
1F
100
AcDbEntity
  8
0
  6
Continuous
 62
     7
370
    25
100
AcDbLine
 10
-18.4820357071
 20
82.7320071333
 30
0.0
 11
-18.4863167222
 21
90.6200366597
 31
0.0
  0
LINE
  5
18E
330
1F
100
AcDbEntity
  8
0
  6
Continuous
 62
     7
370
    25
100
AcDbLine
 10
-18.479308924
 20
90.6254253845
 30
0.0
 11
-18.4863167222
 21
90.6200366597
 31
0.0
  0
LINE
  5
18F
330
1F
100
AcDbEntity
  8
0
  6
Continuous
 62
     7
370
    25
100
AcDbLine
 10
-17.0565392446
 20
90.6200366597
 30
0.0
 11
-17.0522582295
 21
82.7320071333
 31
0.0
  0
LINE
  5
190
330
1F
100
AcDbEntity
  8
0
  6
Continuous
 62
     7
370
    25
100
AcDbLine
 10
-17.2136848513
 20
82.6036917256
 30
0.0
 11
-17.0522582295
 21
82.7320071333
 31
0.0
  0
LINE
  5
191
330
1F
100
AcDbEntity
  8
0
  6
Continuous
 62
     7
370
    25
100
AcDbLine
 10
-18.3186759179
 20
82.6036917256
 30
0.0
 11
-17.2136848513
 21
82.6036917256
 31
0.0
  0
LINE
  5
192
330
1F
100
AcDbEntity
  8
0
  6
Continuous
 62
     7
370
    25
100
AcDbLine
 10
-1.7889381152
 20
90.6200366597
 30
0.0
 11
-2.1293187873
 21
82.7320071333
 31
0.0
  0
LINE
  5
193
330
1F
100
AcDbEntity
  8
0
  6
Continuous
 62
     7
370
    25
100
AcDbLine
 10
-17.0522582295
 20
82.7320071333
 30
0.0
 11
16.8730676778
 21
82.7320071333
 31
0.0
  0
LINE
  5
194
330
1F
100
AcDbEntity
  8
0
  6
Continuous
 62
     7
370
    25
100
AcDbLine
 10
-24.7001291674
 20
90.6200366597
 30
0.0
 11
-24.7008665262
 21
90.6254253845
 31
0.0
  0
LINE
  5
195
330
1F
100
AcDbEntity
  8
0
  6
Continuous
 62
     7
370
    25
100
AcDbLine
 10
-23.9640752708
 20
91.6145585551
 30
0.0
 11
-24.7008665262
 21
90.6254253845
 31
0.0
  0
LINE
  5
196
330
1F
100
AcDbEntity
  8
0
  6
Continuous
 62
     7
370
    25
100
AcDbLine
 10
-18.4863167222
 20
90.6200366597
 30
0.0
 11
-24.7001291674
 21
90.6200366597
 31
0.0
  0
LINE
  5
197
330
1F
100
AcDbEntity
  8
0
  6
Continuous
 62
     7
370
    25
100
AcDbLine
 10
-23.5276615759
 20
82.7320071333
 30
0.0
 11
-18.4820357071
 21
82.7320071333
 31
0.0
  0
LINE
  5
198
330
1F
100
AcDbEntity
  8
0
  6
Continuous
 62
     7
370
    25
100
AcDbLine
 10
-24.7001291674
 20
90.6200366597
 30
0.0
 11
-23.5276615759
 21
82.7320071333
 31
0.0
  0
LINE
  5
199
330
1F
100
AcDbEntity
  8
0
  6
Continuous
 62
     7
370
    25
100
AcDbLine
 10
23.3854521038
 20
82.7320071333
 30
0.0
 11
23.3678775973
 21
82.6036917256
 31
0.0
  0
LINE
  5
19A
330
1F
100
AcDbEntity
  8
0
  6
Continuous
 62
     7
370
    25
100
AcDbLine
 10
23.3678775973
 20
82.6036917256
 30
0.0
 11
22.0339449234
 21
81.6145585551
 31
0.0
  0
LINE
  5
19B
330
1F
100
AcDbEntity
  8
0
  6
Continuous
 62
     7
370
    25
100
AcDbLine
 10
18.1414185336
 20
82.6036917256
 30
0.0
 11
18.0823355625
 21
81.6145585551
 31
0.0
  0
LINE
  5
19C
330
1F
100
AcDbEntity
  8
0
  6
Continuous
 62
     7
370
    25
100
AcDbLine
 10
17.036427467
 20
82.6036917256
 30
0.0
 11
17.1059663264
 21
81.6145585551
 31
0.0
  0
LINE
  5
19D
330
1F
100
AcDbEntity
  8
0
  6
Continuous
 62
     7
370
    25
100
AcDbLine
 10
2.0665760286
 20
82.7320071333
 30
0.0
 11
2.5335153973
 21
81.6145585551
 31
0.0
  0
LINE
  5
19E
330
1F
100
AcDbEntity
  8
0
  6
Continuous
 62
     7
370
    25
100
AcDbLine
 10
-2.1293187873
 20
82.7320071333
 30
0.0
 11
-2.5880979606
 21
81.6145585551
 31
0.0
  0
LINE
  5
19F
330
1F
100
AcDbEntity
  8
0
  6
Continuous
 62
     7
370
    25
100
AcDbLine
 10
-17.2136848513
 20
82.6036917256
 30
0.0
 11
-17.2727678224
 21
81.6145585551
 31
0.0
  0
LINE
  5
1A0
330
1F
100
AcDbEntity
  8
0
  6
Continuous
 62
     7
370
    25
100
AcDbLine
 10
-23.5071072331
 20
82.6036917256
 30
0.0
 11
-23.5276615759
 21
82.7320071333
 31
0.0
  0
LINE
  5
1A1
330
1F
100
AcDbEntity
  8
0
  6
Continuous
 62
     7
370
    25
100
AcDbLine
 10
-18.3186759179
 20
82.6036917256
 30
0.0
 11
-18.2491370585
 21
81.6145585551
 31
0.0
  0
LINE
  5
1A2
330
1F
100
AcDbEntity
  8
0
  6
Continuous
 62
     7
370
    25
100
AcDbLine
 10
22.1719944851
 20
81.6145585551
 30
0.0
 11
-22.1719944851
 21
81.6145585551
 31
0.0
  0
LINE
  5
1A3
330
1F
100
AcDbEntity
  8
0
  6
Continuous
 62
     7
370
    25
100
AcDbLine
 10
-23.5071072331
 20
82.6036917256
 30
0.0
 11
-22.1719944851
 21
81.6145585551
 31
0.0
  0
LINE
  5
1A4
330
1F
100
AcDbEntity
  8
0
  6
Continuous
 62
     7
370
    25
100
AcDbLine
 10
24.5717749147
 20
90.6254253845
 30
0.0
 11
24.5587849908
 21
90.6254253845
 31
0.0
  0
LINE
  5
1A5
330
1F
100
AcDbEntity
  8
0
  6
Continuous
 62
     7
370
    25
100
AcDbLine
 10
24.571037556
 20
90.6200366597
 30
0.0
 11
24.5717749147
 21
90.6254253845
 31
0.0
  0
LINE
  5
1A6
330
1F
100
AcDbEntity
  8
0
  6
Continuous
 62
     7
370
    25
100
AcDbLine
 10
24.571037556
 20
90.6200366597
 30
0.0
 11
23.3985699645
 21
82.7320071333
 31
0.0
  0
LINE
  5
1A7
330
1F
100
AcDbEntity
  8
0
  6
Continuous
 62
     7
370
    25
100
AcDbLine
 10
23.3780156216
 20
82.6036917256
 30
0.0
 11
23.3985699645
 21
82.7320071333
 31
0.0
  0
LINE
  5
1A8
330
1F
100
AcDbEntity
  8
0
  6
Continuous
 62
     7
370
    25
100
AcDbLine
 10
23.3678775973
 20
82.6036917256
 30
0.0
 11
23.3780156216
 21
82.6036917256
 31
0.0
  0
LINE
  5
1A9
330
1F
100
AcDbEntity
  8
0
  6
Continuous
 62
     7
370
    25
100
AcDbLine
 10
24.5717749147
 20
90.6254253845
 30
0.0
 11
23.8349836593
 21
91.6145585551
 31
0.0
  0
LINE
  5
1AA
330
1F
100
AcDbEntity
  8
0
  6
Continuous
 62
     7
370
    25
100
AcDbLine
 10
22.0429028737
 20
81.6145585551
 30
0.0
 11
23.3780156216
 21
82.6036917256
 31
0.0
  0
LINE
  5
1AB
330
1F
100
AcDbEntity
  8
0
  6
Continuous
 62
     7
370
    25
100
AcDbLine
 10
-7.5
 20
74.1145585551
 30
0.0
 11
7.5
 21
74.1145585551
 31
0.0
  0
LINE
  5
1AC
330
1F
100
AcDbEntity
  8
0
  6
Continuous
 62
     7
370
    25
100
AcDbLine
 10
4.2271214128
 20
72.6145585551
 30
0.0
 11
5.283901766
 21
74.1145585551
 31
0.0
  0
LINE
  5
1AD
330
1F
100
AcDbEntity
  8
0
  6
Continuous
 62
     7
370
    25
100
AcDbLine
 10
6.0
 20
72.6145585551
 30
0.0
 11
-6.0
 21
72.6145585551
 31
0.0
  0
LINE
  5
1AE
330
1F
100
AcDbEntity
  8
0
  6
Continuous
 62
     7
370
    25
100
AcDbLine
 10
5.283901766
 20
74.1145585551
 30
0.0
 11
5.283901766
 21
81.6145585551
 31
0.0
  0
LINE
  5
1AF
330
1F
100
AcDbEntity
  8
0
  6
Continuous
 62
     7
370
    25
100
AcDbLine
 10
24.6870113068
 20
90.6200366597
 30
0.0
 11
24.571037556
 21
90.6200366597
 31
0.0
  0
LINE
  5
1B0
330
1F
100
AcDbEntity
  8
0
  6
Continuous
 62
     7
370
    25
100
AcDbLine
 10
23.5145437153
 20
82.7320071333
 30
0.0
 11
24.6870113068
 21
90.6200366597
 31
0.0
  0
LINE
  5
1B1
330
1F
100
AcDbEntity
  8
0
  6
Continuous
 62
     7
370
    25
100
AcDbLine
 10
23.3985699645
 20
82.7320071333
 30
0.0
 11
23.5145437153
 21
82.7320071333
 31
0.0
  0
LINE
  5
1B2
330
1F
100
AcDbEntity
  8
0
  6
Continuous
 62
     7
370
    25
100
AcDbLine
 10
24.6878766023
 20
90.6254253845
 30
0.0
 11
24.6870113068
 21
90.6200366597
 31
0.0
  0
LINE
  5
1B3
330
1F
100
AcDbEntity
  8
0
  6
Continuous
 62
     7
370
    25
100
AcDbLine
 10
24.6878766023
 20
90.6254253845
 30
0.0
 11
23.9584180735
 21
91.6145585551
 31
0.0
  0
LINE
  5
1B4
330
1F
100
AcDbEntity
  8
0
  6
Continuous
 62
     7
370
    25
100
AcDbLine
 10
22.1630365348
 20
81.6145585551
 30
0.0
 11
23.4969692088
 21
82.6036917256
 31
0.0
  0
LINE
  5
1B5
330
1F
100
AcDbEntity
  8
0
  6
Continuous
 62
     7
370
    25
100
AcDbLine
 10
23.5145437153
 20
82.7320071333
 30
0.0
 11
23.4969692088
 21
82.6036917256
 31
0.0
  0
LINE
  5
1B6
330
1F
100
AcDbEntity
  8
0
  6
Continuous
 62
     7
370
    25
100
AcDbLine
 10
24.7008665262
 20
90.6254253845
 30
0.0
 11
24.6878766023
 21
90.6254253845
 31
0.0
  0
LINE
  5
1B7
330
1F
100
AcDbEntity
  8
0
  6
Continuous
 62
     7
370
    25
100
AcDbLine
 10
24.7001291674
 20
90.6200366597
 30
0.0
 11
24.7008665262
 21
90.6254253845
 31
0.0
  0
LINE
  5
1B8
330
1F
100
AcDbEntity
  8
0
  6
Continuous
 62
     7
370
    25
100
AcDbLine
 10
24.7001291674
 20
90.6200366597
 30
0.0
 11
23.5276615759
 21
82.7320071333
 31
0.0
  0
LINE
  5
1B9
330
1F
100
AcDbEntity
  8
0
  6
Continuous
 62
     7
370
    25
100
AcDbLine
 10
23.5071072331
 20
82.6036917256
 30
0.0
 11
23.5276615759
 21
82.7320071333
 31
0.0
  0
LINE
  5
1BA
330
1F
100
AcDbEntity
  8
0
  6
Continuous
 62
     7
370
    25
100
AcDbLine
 10
23.4969692088
 20
82.6036917256
 30
0.0
 11
23.5071072331
 21
82.6036917256
 31
0.0
  0
LINE
  5
1BB
330
1F
100
AcDbEntity
  8
0
  6
Continuous
 62
     7
370
    25
100
AcDbLine
 10
24.7008665262
 20
90.6254253845
 30
0.0
 11
23.9640752708
 21
91.6145585551
 31
0.0
  0
LINE
  5
1BC
330
1F
100
AcDbEntity
  8
0
  6
Continuous
 62
     7
370
    25
100
AcDbLine
 10
22.1719944851
 20
81.6145585551
 30
0.0
 11
23.5071072331
 21
82.6036917256
 31
0.0
  0
LINE
  5
1BD
330
1F
100
AcDbEntity
  8
0
  6
Continuous
 62
     8
370
    25
100
AcDbLine
 10
0.0
 20
-15.6854414449
 30
0.0
 11
0.0
 21
20.6145585551
 31
0.0
  0
LINE
  5
1BE
330
1F
100
AcDbEntity
  8
0
  6
Continuous
 62
     8
370
    25
100
AcDbLine
 10
0.0
 20
26.6145585551
 30
0.0
 11
0.0
 21
31.3145585551
 31
0.0
  0
LINE
  5
1BF
330
1F
100
AcDbEntity
  8
0
  6
Continuous
 62
     8
370
    25
100
AcDbLine
 10
4.2271214128
 20
72.6145585551
 30
0.0
 11
4.2271214128
 21
66.6145585551
 31
0.0
  0
ARC
  5
1C0
330
1F
100
AcDbEntity
  8
0
  6
Continuous
 62
     7
370
    25
100
AcDbCircle
 10
44.8069960652
 20
15.047701464
 30
0.0
 40
7.061233455084801
100
AcDbArc
 50
82.8091905966
 51
97.1908094034
  0
ARC
  5
1C1
330
1F
100
AcDbEntity
  8
0
  6
Continuous
 62
     7
370
    25
100
AcDbCircle
 10
46.5011973197
 20
27.7086551046
 30
0.0
 40
5.713016783985108
100
AcDbArc
 50
261.8458342663
 51
269.6316204237
  0
ARC
  5
1C2
330
1F
100
AcDbEntity
  8
0
  6
Continuous
 62
     7
370
    25
100
AcDbCircle
 10
42.931514778
 20
30.5538255719
 30
0.0
 40
8.558069560000497
100
AcDbArc
 50
269.9827097103
 51
276.65363456
  0
ARC
  5
1C3
330
1F
100
AcDbEntity
  8
0
  6
Continuous
 62
     7
370
    25
100
AcDbCircle
 10
-42.931514778
 20
30.5538255719
 30
0.0
 40
8.558069559998604
100
AcDbArc
 50
263.34636544
 51
270.0172902897
  0
ARC
  5
1C4
330
1F
100
AcDbEntity
  8
0
  6
Continuous
 62
     7
370
    25
100
AcDbCircle
 10
-46.5011973197
 20
27.7086551046
 30
0.0
 40
5.71301678398457
100
AcDbArc
 50
270.3683795763
 51
278.1541657337
  0
ARC
  5
1C5
330
1F
100
AcDbEntity
  8
0
  6
Continuous
 62
     7
370
    25
100
AcDbCircle
 10
-44.8069960652
 20
15.047701464
 30
0.0
 40
7.061233455084813
100
AcDbArc
 50
82.8091905966
 51
97.1908094034
  0
ARC
  5
1C6
330
1F
100
AcDbEntity
  8
0
  6
Continuous
 62
     7
370
    25
100
AcDbCircle
 10
42.0152340298
 20
21.195256524
 30
0.0
 40
4.830975708988157
100
AcDbArc
 50
79.4576824175
 51
100.5423175825
  0
ARC
  5
1C7
330
1F
100
AcDbEntity
  8
0
  6
Continuous
 62
     7
370
    25
100
AcDbCircle
 10
-42.0152340298
 20
21.195256524
 30
0.0
 40
4.830975708988113
100
AcDbArc
 50
79.4576824175
 51
100.5423175825
  0
ARC
  5
1C8
330
1F
100
AcDbEntity
  8
0
  6
Continuous
 62
     7
370
    25
100
AcDbCircle
 10
68.5686127979
 20
25.1307961873
 30
0.0
 40
3.135214294371449
100
AcDbArc
 50
269.3954747942
 51
281.0203094198
  0
ARC
  5
1C9
330
1F
100
AcDbEntity
  8
0
  6
Continuous
 62
     7
370
    25
100
AcDbCircle
 10
-68.5686127979
 20
25.1307961873
 30
0.0
 40
3.135214294371078
100
AcDbArc
 50
258.9796905802
 51
270.6045252058
  0
ARC
  5
1CA
330
1F
100
AcDbEntity
  8
0
  6
Continuous
 62
     7
370
    25
100
AcDbCircle
 10
-41.0833830459
 20
23.8205060513
 30
0.0
 40
2.794464219751515
100
AcDbArc
 50
90.9835412082
 51
130.5236007591
  0
ARC
  5
1CB
330
1F
100
AcDbEntity
  8
0
  6
Continuous
 62
     7
370
    25
100
AcDbCircle
 10
41.0833830459
 20
23.8205060513
 30
0.0
 40
2.794464219751507
100
AcDbArc
 50
49.4763992409
 51
89.0164587918
  0
ARC
  5
1CC
330
1F
100
AcDbEntity
  8
0
  6
Continuous
 62
     7
370
    25
100
AcDbCircle
 10
-60.6122865303
 20
23.8205060513
 30
0.0
 40
2.794464219751486
100
AcDbArc
 50
90.9835412082
 51
130.5236007591
  0
ARC
  5
1CD
330
1F
100
AcDbEntity
  8
0
  6
Continuous
 62
     7
370
    25
100
AcDbCircle
 10
60.6122865303
 20
23.8205060513
 30
0.0
 40
2.794464219751465
100
AcDbArc
 50
49.4763992409
 51
89.0164587918
  0
ARC
  5
1CE
330
1F
100
AcDbEntity
  8
0
  6
Continuous
 62
     7
370
    25
100
AcDbCircle
 10
-69.534047283
 20
20.9284843917
 30
0.0
 40
1.182991698272377
100
AcDbArc
 50
71.9718877138
 51
108.0281122862
  0
ARC
  5
1CF
330
1F
100
AcDbEntity
  8
0
  6
Continuous
 62
     7
370
    25
100
AcDbCircle
 10
69.534047283
 20
20.9284843917
 30
0.0
 40
1.182991698272243
100
AcDbArc
 50
71.9718877138
 51
108.0281122862
  0
ARC
  5
1D0
330
1F
100
AcDbEntity
  8
0
  6
Continuous
 62
     7
370
    25
100
AcDbCircle
 10
-62.7941375143
 20
25.1659368604
 30
0.0
 40
0.8605177904074631
100
AcDbArc
 50
64.8201706754
 51
115.1798293246
  0
ARC
  5
1D1
330
1F
100
AcDbEntity
  8
0
  6
Continuous
 62
     7
370
    25
100
AcDbCircle
 10
62.7941375143
 20
25.1659368604
 30
0.0
 40
0.8605177904075244
100
AcDbArc
 50
64.8201706754
 51
115.1798293246
  0
ARC
  5
1D2
330
1F
100
AcDbEntity
  8
0
  6
Continuous
 62
     7
370
    25
100
AcDbCircle
 10
60.6602540378
 20
21.6145585551
 30
0.0
 40
4.999999999999893
100
AcDbArc
 50
60.0
 51
90.0
  0
ARC
  5
1D3
330
1F
100
AcDbEntity
  8
0
  6
Continuous
 62
     7
370
    25
100
AcDbCircle
 10
-60.6602540378
 20
21.6145585551
 30
0.0
 40
5.000000000000136
100
AcDbArc
 50
90.0
 51
120.0
  0
ARC
  5
1D4
330
1F
100
AcDbEntity
  8
0
  6
Continuous
 62
     7
370
    25
100
AcDbCircle
 10
-0.1349388206
 20
33.3357003725
 30
0.0
 40
4.210984524333196
100
AcDbArc
 50
172.9978473841
 51
180.2550303981
  0
SPLINE
  5
498
330
23
100
AcDbEntity
 67
     1
  8
0
  6
Continuous
 62
     7
370
    25
100
AcDbSpline
210
0.0
220
0.0
230
1.0
 70
     8
 71
     3
 72
     9
 73
     5
 74
     0
 42
0.000000001
 43
0.00000001
 40
0.0
 40
0.0
 40
0.0
 40
0.0
 40
0.5000000388465441
 40
1.0
 40
1.0
 40
1.0
 40
1.0
 10
-33.84985987747626
 20
-60.8458536269349
 30
0.0
 10
-33.76641009273288
 20
-60.89043187770792
 30
0.0
 10
-33.59951053621308
 20
-60.97958837232711
 30
0.0
 10
-33.41078097352739
 20
-60.99320783617502
 30
0.0
 10
-33.31641619951601
 20
-61.00001756756989
 30
0.0
  0
SPLINE
  5
499
330
23
100
AcDbEntity
 67
     1
  8
0
  6
Continuous
 62
     7
370
    25
100
AcDbSpline
210
0.0
220
0.0
230
1.0
 70
     8
 71
     3
 72
    12
 73
     8
 74
     0
 42
0.000000001
 43
0.00000001
 40
0.0
 40
0.0
 40
0.0
 40
0.0
 40
0.1250724359649689
 40
0.2497942646863736
 40
0.375059089721102
 40
0.5004511619891471
 40
1.0
 40
1.0
 40
1.0
 40
1.0
 10
-33.79015896479587
 20
-19.11614885219614
 30
0.0
 10
-34.19148622595902
 20
-19.34642470249775
 30
0.0
 10
-34.99301573425868
 20
-19.80633088612105
 30
0.0
 10
-36.32269615325794
 20
-20.23405789751211
 30
0.0
 10
-37.70137649571159
 20
-20.40745873766018
 30
0.0
 10
-40.46697433345004
 20
-20.55751710751589
 30
0.0
 10
-42.77201540905602
 20
-20.66449045629482
 30
0.0
 10
-44.614558555051
 20
-20.75
 30
0.0
  0
SPLINE
  5
49A
330
23
100
AcDbEntity
 67
     1
  8
0
  6
Continuous
 62
     7
370
    25
100
AcDbSpline
210
0.0
220
0.0
230
1.0
 70
     8
 71
     3
 72
    12
 73
     8
 74
     0
 42
0.000000001
 43
0.00000001
 40
0.0
 40
0.0
 40
0.0
 40
0.0
 40
0.4995489011000492
 40
0.6249408268484804
 40
0.7502059117133795
 40
0.8749277976901816
 40
1.0
 40
1.0
 40
1.0
 40
1.0
 10
-44.614558555051
 20
-59.25
 30
0.0
 10
-42.77209520986154
 20
-59.33549805627793
 30
0.0
 10
-40.46715456472114
 20
-59.44245700637591
 30
0.0
 10
-37.70168023832097
 20
-59.59253464561456
 30
0.0
 10
-36.32305262901436
 20
-59.7658601126786
 30
0.0
 10
-34.99341067703236
 20
-60.19350713519435
 30
0.0
 10
-34.19189047742956
 20
-60.65334605605682
 30
0.0
 10
-33.79056834347616
 20
-60.88358796023689
 30
0.0
  0
SPLINE
  5
49B
330
23
100
AcDbEntity
 67
     1
  8
0
  6
Continuous
 62
     7
370
    25
100
AcDbSpline
210
0.0
220
0.0
230
1.0
 70
     8
 71
     3
 72
     9
 73
     5
 74
     0
 42
0.000000001
 43
0.00000001
 40
0.0
 40
0.0
 40
0.0
 40
0.0
 40
0.4999999869841331
 40
1.0
 40
1.0
 40
1.0
 40
1.0
 10
-33.31641145679917
 20
-19.0000084113593
 30
0.0
 10
-33.41077633778343
 20
-19.00681839358896
 30
0.0
 10
-33.59950610466492
 20
-19.02043835840283
 30
0.0
 10
-33.76640581395963
 20
-19.10959509882506
 30
0.0
 10
-33.84985567077933
 20
-19.15417347019662
 30
0.0
  0
SPLINE
  5
4A2
330
23
100
AcDbEntity
 67
     1
  8
0
  6
Continuous
 62
     7
370
    25
100
AcDbSpline
210
0.0
220
0.0
230
1.0
 70
     8
 71
     3
 72
    12
 73
     8
 74
     0
 42
0.000000001
 43
0.00000001
 40
0.0
 40
0.0
 40
0.0
 40
0.0
 40
0.4997555716959999
 40
0.6252005901080695
 40
0.7505097932286412
 40
0.8751771648444836
 40
1.0
 40
1.0
 40
1.0
 40
1.0
 10
-44.614558555051
 20
20.74986560800777
 30
0.0
 10
-42.77209645638478
 20
20.66116337371306
 30
0.0
 10
-40.46715288681397
 20
20.55019574800603
 30
0.0
 10
-37.70169732194785
 20
20.39569559706777
 30
0.0
 10
-36.32357475639584
 20
20.22180364946315
 30
0.0
 10
-34.99451809654374
 20
19.79804672672075
 30
0.0
 10
-34.19205160674841
 20
19.34287206123149
 30
0.0
 10
-33.79056834345808
 20
19.11514291317158
 30
0.0
  0
SPLINE
  5
4A4
330
23
100
AcDbEntity
 67
     1
  8
0
  6
Continuous
 62
     7
370
    25
100
AcDbSpline
210
0.0
220
0.0
230
1.0
 70
     8
 71
     3
 72
     9
 73
     5
 74
     0
 42
0.000000001
 43
0.00000001
 40
0.0
 40
0.0
 40
0.0
 40
0.0
 40
0.5000002095028974
 40
1.0
 40
1.0
 40
1.0
 40
1.0
 10
-33.84914576435937
 20
19.15139546434805
 30
0.0
 10
-33.7662810711013
 20
19.10760750959163
 30
0.0
 10
-33.60055175402671
 20
19.0200316367736
 30
0.0
 10
-33.41358331615641
 20
19.00666969668895
 30
0.0
 10
-33.32009913639168
 20
18.999988729446
 30
0.0
  0
SPLINE
  5
4A7
330
23
100
AcDbEntity
 67
     1
  8
0
  6
Continuous
 62
     7
370
    25
100
AcDbSpline
210
0.0
220
0.0
230
1.0
 70
     8
 71
     3
 72
    12
 73
     8
 74
     0
 42
0.000000001
 43
0.00000001
 40
0.0
 40
0.0
 40
0.0
 40
0.0
 40
0.1248230078357683
 40
0.2494902961064621
 40
0.3747992452830173
 40
0.5002444265303964
 40
1.0
 40
1.0
 40
1.0
 40
1.0
 10
-33.79015896479913
 20
60.88511718893625
 30
0.0
 10
-34.191647385583
 20
60.65735457414428
 30
0.0
 10
-34.99412336113772
 20
60.20211348364597
 30
0.0
 10
-36.3232184853307
 20
59.77827782466961
 30
0.0
 10
-37.70139362960864
 20
59.60431162253114
 30
0.0
 10
-40.46697264200526
 20
59.44983016441484
 30
0.0
 10
-42.77201664959773
 20
59.33884812493099
 30
0.0
 10
-44.614558555051
 20
59.25013439199222
 30
0.0
  0
SPLINE
  5
4AA
330
23
100
AcDbEntity
 67
     1
  8
0
  6
Continuous
 62
     7
370
    25
100
AcDbSpline
210
0.0
220
0.0
230
1.0
 70
     8
 71
     3
 72
     9
 73
     5
 74
     0
 42
0.000000001
 43
0.00000001
 40
0.0
 40
0.0
 40
0.0
 40
0.0
 40
0.4999997968395379
 40
1.0
 40
1.0
 40
1.0
 40
1.0
 10
-33.32009460170108
 20
61.0000029806505
 30
0.0
 10
-33.41357888796711
 20
60.99332193180208
 30
0.0
 10
-33.6005475364684
 20
60.97995982867589
 30
0.0
 10
-33.76627695939293
 20
60.89238368340568
 30
0.0
 10
-33.84914170452486
 20
60.84859559297855
 30
0.0
  0
SPLINE
  5
55A
330
23
100
AcDbEntity
 67
     1
  8
0
  6
Continuous
 62
     7
370
    25
100
AcDbSpline
210
0.0
220
0.0
230
1.0
 70
     8
 71
     3
 72
     8
 73
     4
 74
     0
 42
0.000000001
 43
0.00000001
 40
0.0
 40
0.0
 40
0.0
 40
0.0
 40
1.0
 40
1.0
 40
1.0
 40
1.0
 10
-33.31695683639485
 20
-35.61044212048807
 30
0.0
 10
-33.3167759792019
 20
-37.05193618093404
 30
0.0
 10
-33.31659512200896
 20
-38.52594398700933
 30
0.0
 10
-33.316414264816
 20
-40.00000000000009
 30
0.0
  0
SPLINE
  5
55B
330
23
100
AcDbEntity
 67
     1
  8
0
  6
Continuous
 62
     7
370
    25
100
AcDbSpline
210
0.0
220
0.0
230
1.0
 70
     8
 71
     3
 72
     8
 73
     4
 74
     0
 42
0.000000001
 43
0.00000001
 40
0.0
 40
0.0
 40
0.0
 40
0.0
 40
1.0
 40
1.0
 40
1.0
 40
1.0
 10
-33.8498583124271
 20
-40.00000000000001
 30
0.0
 10
-33.8495879723425
 20
-38.53683356476004
 30
0.0
 10
-33.84931764141581
 20
-37.07384071567701
 30
0.0
 10
-33.84904731964853
 20
-35.64285029105621
 30
0.0
  0
SPLINE
  5
55D
330
23
100
AcDbEntity
 67
     1
  8
0
  6
Continuous
 62
     7
370
    25
100
AcDbSpline
210
0.0
220
0.0
230
1.0
 70
    24
 71
     3
 72
    14
 73
    10
 74
     0
 42
0.000000001
 43
0.00000001
 40
0.0
 40
0.0
 40
0.0
 40
0.0
 40
0.5000000000000056
 40
0.6250000000000054
 40
0.6250000000000054
 40
0.6875000000000054
 40
0.6875000000000054
 40
0.7500000000000053
 40
1.0
 40
1.0
 40
1.0
 40
1.0
 10
-44.614558555051
 20
-40.0
 30
0.0
 10
-42.76786078903968
 20
-40.00000000000001
 30
0.0
 10
-40.49999752878885
 20
-40.0
 30
0.0
 10
-38.20645081333483
 20
-40.00000000000001
 30
0.0
 10
-37.51570099679719
 20
-40.00000000000001
 30
0.0
 10
-37.28554777607319
 20
-40.00000000000001
 30
0.0
 10
-36.82982631940877
 20
-40.00000000000001
 30
0.0
 10
-35.69962541191457
 20
-40.00000000000001
 30
0.0
 10
-34.62964641068791
 20
-40.00000000000001
 30
0.0
 10
-33.8498583124271
 20
-40.00000000000001
 30
0.0
  0
SPLINE
  5
560
330
23
100
AcDbEntity
 67
     1
  8
0
  6
Continuous
 62
     7
370
    25
100
AcDbSpline
210
0.0
220
0.0
230
1.0
 70
     8
 71
     3
 72
    12
 73
     8
 74
     0
 42
0.000000001
 43
0.00000001
 40
0.0
 40
0.0
 40
0.0
 40
0.0
 40
0.124884884482735
 40
0.250450100010934
 40
0.5006139947618149
 40
0.7504711792750746
 40
1.0
 40
1.0
 40
1.0
 40
1.0
 10
-47.61468534784503
 20
-20.85479298745315
 30
0.0
 10
-47.62963868402517
 20
-20.85845798204275
 30
0.0
 10
-47.65962681715536
 20
-20.86580793688563
 30
0.0
 10
-47.97558785192446
 20
-20.94131410588476
 30
0.0
 10
-48.71355953471267
 20
-21.10143536080791
 30
0.0
 10
-50.03995066032932
 20
-21.32321814642404
 30
0.0
 10
-51.08991938721402
 20
-21.38784852173068
 30
0.0
 10
-51.614558555051
 20
-21.42014246101635
 30
0.0
  0
SPLINE
  5
561
330
23
100
AcDbEntity
 67
     1
  8
0
  6
Continuous
 62
     7
370
    25
100
AcDbSpline
210
0.0
220
0.0
230
1.0
 70
     8
 71
     3
 72
    13
 73
     9
 74
     0
 42
0.000000001
 43
0.00000001
 40
0.0
 40
0.0
 40
0.0
 40
0.0
 40
0.125061555376772
 40
0.2508169653940511
 40
0.5004475666820446
 40
0.7501063607672414
 40
0.9998609573381847
 40
1.0
 40
1.0
 40
1.0
 40
1.0
 10
-51.614558555051
 20
-21.42014246101635
 30
0.0
 10
-51.87603569072896
 20
-21.42621369702265
 30
0.0
 10
-52.40044066468831
 20
-21.43838985289009
 30
0.0
 10
-53.40342947196746
 20
-21.40863872801016
 30
0.0
 10
-54.53001958118373
 20
-21.30654848645953
 30
0.0
 10
-55.35727620035564
 20
-21.18084397060696
 30
0.0
 10
-55.7162757857396
 20
-21.11691466840298
 30
0.0
 10
-55.61444523234649
 20
-21.13414764244813
 30
0.0
 10
-55.6143885730764
 20
-21.13415723100184
 30
0.0
  0
SPLINE
  5
56A
330
23
100
AcDbEntity
 67
     1
  8
0
  6
Continuous
 62
     7
370
    25
100
AcDbSpline
210
0.0
220
0.0
230
1.0
 70
     8
 71
     3
 72
    14
 73
    10
 74
     0
 42
0.000000001
 43
0.00000001
 40
0.0
 40
0.0
 40
0.0
 40
0.0
 40
0.5000000000000011
 40
0.6249999999999999
 40
0.6249999999999999
 40
0.6874999999999993
 40
0.6874999999999993
 40
0.7499999999999987
 40
1.0
 40
1.0
 40
1.0
 40
1.0
 10
-44.614558555051
 20
57.58454784436103
 30
0.0
 10
-42.76786078903967
 20
57.64345663413096
 30
0.0
 10
-40.49999752878887
 20
57.74368040094078
 30
0.0
 10
-38.20645081333483
 20
57.88077442103545
 30
0.0
 10
-37.51570099679719
 20
57.92416937519276
 30
0.0
 10
-37.28554777607319
 20
57.94201733893809
 30
0.0
 10
-36.82982631940877
 20
57.99997984484908
 30
0.0
 10
-35.69962541191454
 20
58.18887671105412
 30
0.0
 10
-34.62964641068791
 20
58.59307456685681
 30
0.0
 10
-33.8498583124271
 20
59.04231631993762
 30
0.0
  0
SPLINE
  5
56D
330
23
100
AcDbEntity
 67
     1
  8
0
  6
Continuous
 62
     7
370
    25
100
AcDbSpline
210
0.0
220
0.0
230
1.0
 70
     8
 71
     3
 72
     8
 73
     4
 74
     0
 42
0.000000001
 43
0.00000001
 40
0.0
 40
0.0
 40
0.0
 40
0.0
 40
1.0
 40
1.0
 40
1.0
 40
1.0
 10
-33.8498583124271
 20
59.04231631993764
 30
0.0
 10
-33.8495879723425
 20
59.63780066666268
 30
0.0
 10
-33.84931764141581
 20
60.09174197457011
 30
0.0
 10
-33.84904731964853
 20
60.39532612802372
 30
0.0
  0
SPLINE
  5
56F
330
23
100
AcDbEntity
 67
     1
  8
0
  6
Continuous
 62
     7
370
    25
100
AcDbSpline
210
0.0
220
0.0
230
1.0
 70
     8
 71
     3
 72
     8
 73
     4
 74
     0
 42
0.000000001
 43
0.00000001
 40
0.0
 40
0.0
 40
0.0
 40
0.0
 40
1.0
 40
1.0
 40
1.0
 40
1.0
 10
-33.31695683639485
 20
60.54539639086477
 30
0.0
 10
-33.3167759792019
 20
60.24034529807938
 30
0.0
 10
-33.31659512200896
 20
59.7829024221975
 30
0.0
 10
-33.316414264816
 20
59.18314310293926
 30
0.0
  0
SPLINE
  5
5DB
330
23
100
AcDbEntity
 67
     1
  8
0
  6
Continuous
 62
     8
370
    25
100
AcDbSpline
210
0.0
220
0.0
230
1.0
 70
     8
 71
     3
 72
    44
 73
    40
 74
     0
 42
0.000000001
 43
0.00000001
 40
0.0
 40
0.0
 40
0.0
 40
0.0
 40
0.0549039298682567
 40
0.1057133703901172
 40
0.1524277970613307
 40
0.1950467282785245
 40
0.233569725553111
 40
0.2502747737498474
 40
0.2669798172810843
 40
0.2836848583334354
 40
0.300389899093515
 40
0.3170949417479379
 40
0.3337999884833182
 40
0.3505050414862684
 40
0.3538069545604848
 40
0.3647710526363832
 40
0.3829483007325585
 40
0.3933427235154283
 40
0.4051620070594689
 40
0.4184061365751057
 40
0.4330750954859678
 40
0.449168865429878
 40
0.4666874262594537
 40
0.4945301974548217
 40
0.5334952202522036
 40
0.5835795307098754
 40
0.6192803571574753
 40
0.6580288829890858
 40
0.6998248940584814
 40
0.7331419327477291
 40
0.766458970063377
 40
0.7997760081071222
 40
0.8330930489806616
 40
0.8664100947856919
 40
0.8997271476239083
 40
0.9330442095970053
 40
0.9595112085688436
 40
0.9909423313037018
 40
1.0
 40
1.0
 40
1.0
 40
1.0
 10
-33.316414264816
 20
-40.0
 30
0.0
 10
-33.31643855501913
 20
-40.60381245672876
 30
0.0
 10
-33.31648532397077
 20
-41.76640773975312
 30
0.0
 10
-33.31689235479379
 20
-43.43065372322852
 30
0.0
 10
-33.31756609240914
 20
-44.94119240378805
 30
0.0
 10
-33.31847429684724
 20
-46.29581544783825
 30
0.0
 10
-33.31957702990056
 20
-47.31183318320767
 30
0.0
 10
-33.32039131183578
 20
-48.04630892323721
 30
0.0
 10
-33.32070606178674
 20
-48.5524901751505
 30
0.0
 10
-33.32083347751297
 20
-49.05277960612513
 30
0.0
 10
-33.32076675265854
 20
-49.54683847821305
 30
0.0
 10
-33.32046789382049
 20
-50.03432600874567
 30
0.0
 10
-33.32009568101102
 20
-50.51490374462318
 30
0.0
 10
-33.31933185258057
 20
-50.86165724453873
 30
0.0
 10
-33.31926450946322
 20
-51.15137340082131
 30
0.0
 10
-33.3195131718503
 20
-51.45275660917941
 30
0.0
 10
-33.31979536334238
 20
-51.81464845166248
 30
0.0
 10
-33.32013870926428
 20
-52.17871030553198
 30
0.0
 10
-33.3204476312842
 20
-52.49437271564069
 30
0.0
 10
-33.32080482292326
 20
-52.84297913238412
 30
0.0
 10
-33.32121496225589
 20
-53.22261138340566
 30
0.0
 10
-33.32165052870517
 20
-53.63105395928335
 30
0.0
 10
-33.32232946816075
 20
-54.13937330038562
 30
0.0
 10
-33.32251025461091
 20
-54.81481057731141
 30
0.0
 10
-33.32185302317961
 20
-55.70385685241256
 30
0.0
 10
-33.32055503979463
 20
-56.58150242700015
 30
0.0
 10
-33.31952735181365
 20
-57.38413773912304
 30
0.0
 10
-33.31931644368115
 20
-58.07163755445867
 30
0.0
 10
-33.31968792966713
 20
-58.67698856780989
 30
0.0
 10
-33.32010889861812
 20
-59.1907178460381
 30
0.0
 10
-33.3201325187946
 20
-59.61174195455347
 30
0.0
 10
-33.31990294065231
 20
-59.97906890982014
 30
0.0
 10
-33.31939462299069
 20
-60.29166566139903
 30
0.0
 10
-33.31859849890434
 20
-60.54879683798318
 30
0.0
 10
-33.31757637723442
 20
-60.74930337926124
 30
0.0
 10
-33.31619195097304
 20
-60.88439602571844
 30
0.0
 10
-33.31518494263177
 20
-60.96581240411268
 30
0.0
 10
-33.31489711014346
 20
-61.00433185260278
 30
0.0
 10
-33.31493115731286
 20
-60.99555023521108
 30
0.0
 10
-33.31493877393883
 20
-60.99358571668284
 30
0.0
  0
SPLINE
  5
5DC
330
23
100
AcDbEntity
 67
     1
  8
0
  6
Continuous
 62
     8
370
    25
100
AcDbSpline
210
0.0
220
0.0
230
1.0
 70
     8
 71
     3
 72
    36
 73
    32
 74
     0
 42
0.000000001
 43
0.00000001
 40
0.0
 40
0.0
 40
0.0
 40
0.0
 40
0.0312202465180903
 40
0.0789853007368731
 40
0.1324794744942661
 40
0.1917019581434981
 40
0.3262603696208792
 40
0.4608187573397637
 40
0.4801197135360655
 40
0.4994206694643405
 40
0.5187216267201127
 40
0.538022586898907
 40
0.5573235515962449
 40
0.5766245224076488
 40
0.595925500928639
 40
0.6096999581917913
 40
0.6243127654150555
 40
0.6436864442831755
 40
0.6678207924544269
 40
0.6967155574087285
 40
0.7303704366230983
 40
0.7528616748484712
 40
0.7753529063885589
 40
0.7978441354345563
 40
0.820335366177659
 40
0.8428266028090624
 40
0.865317849519958
 40
0.8839940011773202
 40
0.912667362724203
 40
0.9513366227931755
 40
1.0
 40
1.0
 40
1.0
 40
1.0
 10
-33.31493893389241
 20
-19.00655460187567
 30
0.0
 10
-33.31493376391912
 20
-19.00765770329217
 30
0.0
 10
-33.31492068420516
 20
-19.01044848193239
 30
0.0
 10
-33.31545299334978
 20
-19.11234731471574
 30
0.0
 10
-33.31636699550464
 20
-19.32886871257912
 30
0.0
 10
-33.31845900070683
 20
-19.84476444342852
 30
0.0
 10
-33.32058026156011
 20
-20.92830579655081
 30
0.0
 10
-33.32026096164409
 20
-22.33837665801289
 30
0.0
 10
-33.31983252175889
 20
-23.32287679777318
 30
0.0
 10
-33.31989493755239
 20
-23.66360454705387
 30
0.0
 10
-33.32010514993971
 20
-24.01557196659389
 30
0.0
 10
-33.3204691552866
 20
-24.37854937172953
 30
0.0
 10
-33.32102085285387
 20
-24.75228363767025
 30
0.0
 10
-33.32161864917166
 20
-25.13651738167152
 30
0.0
 10
-33.32268274081922
 20
-25.49333898743808
 30
0.0
 10
-33.32265676790988
 20
-25.82524567780242
 30
0.0
 10
-33.32236483288231
 20
-26.1635830149139
 30
0.0
 10
-33.32192059238635
 20
-26.58375634432144
 30
0.0
 10
-33.32126555481432
 20
-27.12024216257943
 30
0.0
 10
-33.32042650303109
 20
-27.78084537367695
 30
0.0
 10
-33.31948968911679
 20
-28.44905234130333
 30
0.0
 10
-33.3187689662051
 20
-29.08247739905852
 30
0.0
 10
-33.31847669248207
 20
-29.63619863885311
 30
0.0
 10
-33.31844309124234
 20
-30.19960793426564
 30
0.0
 10
-33.31871192692071
 20
-30.77218317664396
 30
0.0
 10
-33.3191756021133
 20
-31.35338359190759
 30
0.0
 10
-33.32016164776887
 20
-31.90936221648386
 30
0.0
 10
-33.32043120529696
 20
-32.52642489418402
 30
0.0
 10
-33.31983665925568
 20
-33.29611569162594
 30
0.0
 10
-33.31871022511523
 20
-34.349552619778
 30
0.0
 10
-33.31758425049236
 20
-35.15925874116174
 30
0.0
 10
-33.31695683639486
 20
-35.61044212048804
 30
0.0
  0
SPLINE
  5
5DD
330
23
100
AcDbEntity
 67
     1
  8
0
  6
Continuous
 62
     8
370
    25
100
AcDbSpline
210
0.0
220
0.0
230
1.0
 70
     8
 71
     3
 72
    16
 73
    12
 74
     0
 42
0.000000001
 43
0.00000001
 40
0.0
 40
0.0
 40
0.0
 40
0.0
 40
0.0672646950075311
 40
0.1836913004601441
 40
0.3005340074116609
 40
0.4167924019310896
 40
0.5337612808845663
 40
0.6499543044150935
 40
0.7669176906820626
 40
0.8831288273925979
 40
1.0
 40
1.0
 40
1.0
 40
1.0
 10
-33.84943553765013
 20
-60.76078575107753
 30
0.0
 10
-33.84935387938964
 20
-60.77159727865973
 30
0.0
 10
-33.84913088109814
 20
-60.80112218115595
 30
0.0
 10
-33.84982535875596
 20
-60.07708106312243
 30
0.0
 10
-33.84820187849535
 20
-58.68116636691441
 30
0.0
 10
-33.84623621674665
 20
-56.62614309195892
 30
0.0
 10
-33.84963515563139
 20
-54.02693140536533
 30
0.0
 10
-33.84521511136715
 20
-50.94976160829898
 30
0.0
 10
-33.85101565797333
 20
-47.51400910234507
 30
0.0
 10
-33.84833095229811
 20
-43.82029806939735
 30
0.0
 10
-33.84934591357765
 20
-41.27583446989475
 30
0.0
 10
-33.84985483128675
 20
-40.00000000008484
 30
0.0
  0
SPLINE
  5
5DE
330
23
100
AcDbEntity
 67
     1
  8
0
  6
Continuous
 62
     8
370
    25
100
AcDbSpline
210
0.0
220
0.0
230
1.0
 70
     8
 71
     3
 72
    15
 73
    11
 74
     0
 42
0.000000001
 43
0.00000001
 40
0.0
 40
0.0
 40
0.0
 40
0.0
 40
0.1346393714580234
 40
0.2695165487020882
 40
0.4039316762004095
 40
0.5390129914159651
 40
0.673261305888632
 40
0.8083897515374272
 40
0.9426001753326687
 40
1.0
 40
1.0
 40
1.0
 40
1.0
 10
-33.84904731964851
 20
-35.64285029105624
 30
0.0
 10
-33.84960527190304
 20
-34.41216112789265
 30
0.0
 10
-33.85072216189111
 20
-31.94860910600636
 30
0.0
 10
-33.84483219685246
 20
-28.56515448322363
 30
0.0
 10
-33.85041415537346
 20
-25.54930132606395
 30
0.0
 10
-33.8452866039127
 20
-23.02881816548957
 30
0.0
 10
-33.84957083347032
 20
-21.06041837289586
 30
0.0
 10
-33.84898123171271
 20
-19.77258158921971
 30
0.0
 10
-33.84952675454933
 20
-19.15160787780148
 30
0.0
 10
-33.84945007819944
 20
-19.21949423811813
 30
0.0
 10
-33.84942710860843
 20
-19.23983065128363
 30
0.0
  0
SPLINE
  5
5DF
330
23
100
AcDbEntity
 67
     1
  8
0
  6
Continuous
 62
     8
370
    25
100
AcDbSpline
210
0.0
220
0.0
230
1.0
 70
    24
 71
     3
 72
    22
 73
    18
 74
     0
 42
0.000000001
 43
0.00000001
 40
0.0
 40
0.0
 40
0.0
 40
0.0
 40
0.125
 40
0.125
 40
0.2499999999999999
 40
0.2499999999999999
 40
0.3749999999999999
 40
0.3749999999999999
 40
0.4999999999999999
 40
0.4999999999999999
 40
0.6249999999999999
 40
0.6249999999999999
 40
0.7499999999999998
 40
0.7499999999999998
 40
0.8749999999999999
 40
0.8749999999999999
 40
1.0
 40
1.0
 40
1.0
 40
1.0
 10
-44.614558555051
 20
-40.00000000000004
 30
0.0
 10
-44.614558555051
 20
-38.74009044621662
 30
0.0
 10
-44.61455855505098
 20
-37.48021204617969
 30
0.0
 10
-44.614558555051
 20
-35.00881055619933
 30
0.0
 10
-44.614558555051
 20
-33.7973485765279
 30
0.0
 10
-44.61455855505098
 20
-31.46933927741602
 30
0.0
 10
-44.614558555051
 20
-30.35284952259311
 30
0.0
 10
-44.614558555051
 20
-28.25769650615197
 30
0.0
 10
-44.614558555051
 20
-27.27908505132079
 30
0.0
 10
-44.614558555051
 20
-25.49730387299685
 30
0.0
 10
-44.614558555051
 20
-24.69417820755493
 30
0.0
 10
-44.61455855505101
 20
-23.29424171879679
 30
0.0
 10
-44.61455855505102
 20
-22.697465511669
 30
0.0
 10
-44.61455855505098
 20
-21.73317248664622
 30
0.0
 10
-44.614558555051
 20
-21.36567951279652
 30
0.0
 10
-44.61455855505098
 20
-20.87408719167896
 30
0.0
 10
-44.614558555051
 20
-20.74999999999996
 30
0.0
 10
-44.614558555051
 20
-20.75
 30
0.0
  0
SPLINE
  5
5E0
330
23
100
AcDbEntity
 67
     1
  8
0
  6
Continuous
 62
     8
370
    25
100
AcDbSpline
210
0.0
220
0.0
230
1.0
 70
    24
 71
     3
 72
    22
 73
    18
 74
     0
 42
0.000000001
 43
0.00000001
 40
0.0
 40
0.0
 40
0.0
 40
0.0
 40
0.1249999999999999
 40
0.1249999999999999
 40
0.2499999999999998
 40
0.2499999999999998
 40
0.3749999999999998
 40
0.3749999999999998
 40
0.4999999999999999
 40
0.4999999999999999
 40
0.6249999999999999
 40
0.6249999999999999
 40
0.7499999999999999
 40
0.7499999999999999
 40
0.875
 40
0.875
 40
1.0
 40
1.0
 40
1.0
 40
1.0
 10
-44.614558555051
 20
-59.25
 30
0.0
 10
-44.614558555051
 20
-59.24999999999998
 30
0.0
 10
-44.614558555051
 20
-59.12591280832094
 30
0.0
 10
-44.614558555051
 20
-58.63432048720331
 30
0.0
 10
-44.61455855505101
 20
-58.26682751335358
 30
0.0
 10
-44.614558555051
 20
-57.30253448833075
 30
0.0
 10
-44.61455855505101
 20
-56.70575828120294
 30
0.0
 10
-44.614558555051
 20
-55.3058217924448
 30
0.0
 10
-44.614558555051
 20
-54.50269612700286
 30
0.0
 10
-44.614558555051
 20
-52.72091494867895
 30
0.0
 10
-44.614558555051
 20
-51.74230349384779
 30
0.0
 10
-44.614558555051
 20
-49.6471504774067
 30
0.0
 10
-44.614558555051
 20
-48.53066072258383
 30
0.0
 10
-44.61455855505098
 20
-46.20265142347202
 30
0.0
 10
-44.614558555051
 20
-44.99118944380061
 30
0.0
 10
-44.614558555051
 20
-42.51978795382031
 30
0.0
 10
-44.614558555051
 20
-41.25990955378343
 30
0.0
 10
-44.614558555051
 20
-40.00000000000004
 30
0.0
  0
SPLINE
  5
5E1
330
23
100
AcDbEntity
 67
     1
  8
0
  6
Continuous
 62
     8
370
    25
100
AcDbSpline
210
0.0
220
0.0
230
1.0
 70
    24
 71
     3
 72
    28
 73
    24
 74
     0
 42
0.000000001
 43
0.00000001
 40
0.0
 40
0.0
 40
0.0
 40
0.0
 40
0.0384136392855052
 40
0.0864929573212298
 40
0.1345722753569544
 40
0.1826515933926793
 40
0.2307309114284043
 40
0.2788102294641286
 40
0.3268895474998534
 40
0.3749688655355781
 40
0.4230481835713027
 40
0.4711275016070276
 40
0.519206819642752
 40
0.5672861376784768
 40
0.615365455714202
 40
0.6634447737499262
 40
0.711524091785651
 40
0.7596034098213755
 40
0.8076827278571003
 40
0.8557620458928251
 40
0.9038413639285497
 40
0.9519206819642744
 40
1.0
 40
1.0
 40
1.0
 40
1.0
 10
-44.614558555051
 20
20.77647025661182
 30
0.0
 10
-44.614558555051
 20
20.78612174071197
 30
0.0
 10
-44.614558555051
 20
20.80785322509847
 30
0.0
 10
-44.614558555051
 20
21.23385571633785
 30
0.0
 10
-44.61455855505098
 20
21.97445780041826
 30
0.0
 10
-44.61455855505103
 20
23.03342069324202
 30
0.0
 10
-44.61455855505099
 20
24.38002337280696
 30
0.0
 10
-44.614558555051
 20
25.99460175594244
 30
0.0
 10
-44.61455855505098
 20
27.84862518407135
 30
0.0
 10
-44.61455855505103
 20
29.91061323946426
 30
0.0
 10
-44.61455855505098
 20
32.1452197609653
 30
0.0
 10
-44.614558555051
 20
34.5142274696312
 30
0.0
 10
-44.61455855505098
 20
36.97709712783264
 30
0.0
 10
-44.614558555051
 20
39.4916903303756
 30
0.0
 10
-44.61455855505101
 20
42.01497863933152
 30
0.0
 10
-44.614558555051
 20
44.50379811887666
 30
0.0
 10
-44.61455855505101
 20
46.91552652182029
 30
0.0
 10
-44.61455855505099
 20
49.2090397032587
 30
0.0
 10
-44.614558555051
 20
51.34456808572763
 30
0.0
 10
-44.61455855505099
 20
53.28753871398629
 30
0.0
 10
-44.614558555051
 20
54.99736764308534
 30
0.0
 10
-44.61455855505101
 20
56.47218941375675
 30
0.0
 10
-44.614558555051
 20
57.21376170082627
 30
0.0
 10
-44.614558555051
 20
57.58454784436103
 30
0.0
  0
SPLINE
  5
5E3
330
23
100
AcDbEntity
 67
     1
  8
0
  6
Continuous
 62
     8
370
    25
100
AcDbSpline
210
0.0
220
0.0
230
1.0
 70
     8
 71
     3
 72
    22
 73
    18
 74
     0
 42
0.000000001
 43
0.00000001
 40
0.0
 40
0.0
 40
0.0
 40
0.0
 40
0.0581295043329486
 40
0.1256023329955103
 40
0.1926961193401851
 40
0.2601025661725343
 40
0.3272672280669807
 40
0.3945755941575292
 40
0.4618597672194987
 40
0.5290319223044031
 40
0.5964441465239101
 40
0.6635192525635748
 40
0.7310042715300163
 40
0.7980416618759666
 40
0.8655235118452138
 40
0.932571352563106
 40
1.0
 40
1.0
 40
1.0
 40
1.0
 10
-33.84909138543519
 20
19.19138952883997
 30
0.0
 10
-33.84789955569928
 20
19.2250774905735
 30
0.0
 10
-33.84532432996699
 20
19.29786817812796
 30
0.0
 10
-33.85030490011886
 20
20.25431319378963
 30
0.0
 10
-33.84531294751365
 20
21.85143703262552
 30
0.0
 10
-33.84957653271682
 20
24.07054437882215
 30
0.0
 10
-33.84893477367094
 20
26.82140951554109
 30
0.0
 10
-33.84984456225044
 20
30.01107316138416
 30
0.0
 10
-33.84899757999443
 20
33.53469297580337
 30
0.0
 10
-33.84983053403949
 20
37.27563957025883
 30
0.0
 10
-33.8482004976829
 20
41.10456835659566
 30
0.0
 10
-33.8462365885409
 20
44.90248859339376
 30
0.0
 10
-33.84963505650725
 20
48.52922496684646
 30
0.0
 10
-33.84521513805418
 20
51.87968736908005
 30
0.0
 10
-33.85101565088942
 20
54.81410207602931
 30
0.0
 10
-33.84833095407599
 20
57.30281583760637
 30
0.0
 10
-33.84934591417224
 20
58.46139135819155
 30
0.0
 10
-33.84985483128803
 20
59.04231952919371
 30
0.0
  0
SPLINE
  5
5E4
330
23
100
AcDbEntity
 67
     1
  8
0
  6
Continuous
 62
     8
370
    25
100
AcDbSpline
210
0.0
220
0.0
230
1.0
 70
     8
 71
     3
 72
    68
 73
    64
 74
     0
 42
0.000000001
 43
0.00000001
 40
0.0
 40
0.0
 40
0.0
 40
0.0
 40
0.0316821574740855
 40
0.0610016013558668
 40
0.0879580289816224
 40
0.1125511624434636
 40
0.1347807487127701
 40
0.1444203494697109
 40
0.1540599475344384
 40
0.1636995441687318
 40
0.1733391406343708
 40
0.1829787381931354
 40
0.1926183381068049
 40
0.2022579416371578
 40
0.20416330125239
 40
0.210490103024306
 40
0.2209792325726441
 40
0.2269773048031496
 40
0.2337975888976928
 40
0.2414400763219921
 40
0.2499047575106993
 40
0.2591916218679725
 40
0.2693006577678211
 40
0.2853672499279055
 40
0.3078519059928438
 40
0.3367529156283965
 40
0.3573539764802561
 40
0.3797137035841672
 40
0.4038319733676637
 40
0.4230574761968295
 40
0.4422829782333635
 40
0.461508480690044
 40
0.4807339847796491
 40
0.4999594917149572
 40
0.5191850027087456
 40
0.5384105189737908
 40
0.5536832258662677
 40
0.5718204662851111
 40
0.5928219689155241
 40
0.616687417288796
 40
0.6434164504748244
 40
0.6730086634424718
 40
0.7402058117798768
 40
0.8074029482189476
 40
0.8169843739812512
 40
0.8265657996073976
 40
0.8361472259007267
 40
0.8457286536645777
 40
0.8553100837022898
 40
0.8648915168172016
 40
0.8744729538126512
 40
0.8814586312701391
 40
0.8888123718436041
 40
0.8985377476148783
 40
0.9106346575918106
 40
0.9251029759132395
 40
0.9419425519414726
 40
0.9531157256860692
 40
0.9642888960567405
 40
0.975462065171056
 40
0.986635235146585
 40
0.9978084081008965
 40
0.9999999999999999
 40
0.9999999999999999
 40
0.9999999999999999
 40
0.9999999999999999
 10
-33.316414264816
 20
59.1831431029393
 30
0.0
 10
-33.31643855501906
 20
58.92380463102737
 30
0.0
 10
-33.31648532397046
 20
58.4244679904355
 30
0.0
 10
-33.31689235479271
 20
57.54722631307526
 30
0.0
 10
-33.31756609240756
 20
56.65063943635356
 30
0.0
 10
-33.31847429684407
 20
55.75268399400242
 30
0.0
 10
-33.31957702990122
 20
55.01453358655633
 30
0.0
 10
-33.32039131184332
 20
54.4476672896601
 30
0.0
 10
-33.3207060617987
 20
54.04278744792828
 30
0.0
 10
-33.32083347752734
 20
53.62824202970723
 30
0.0
 10
-33.32076675267285
 20
53.20431531588061
 30
0.0
 10
-33.32046789383272
 20
52.77129860928448
 30
0.0
 10
-33.32009568101755
 20
52.32949311444148
 30
0.0
 10
-33.319331852584
 20
51.99962289779682
 30
0.0
 10
-33.31926450945802
 20
51.71832411209316
 30
0.0
 10
-33.31951317184402
 20
51.42140729529397
 30
0.0
 10
-33.31979536333563
 20
51.05412303090396
 30
0.0
 10
-33.32013870925795
 20
50.67370331797223
 30
0.0
 10
-33.32044763127842
 20
50.33628055353642
 30
0.0
 10
-33.32080482291838
 20
49.95394289523361
 30
0.0
 10
-33.32121496225235
 20
49.52543706544832
 30
0.0
 10
-33.32165052870292
 20
49.04948146939763
 30
0.0
 10
-33.32232946816065
 20
48.43596622440946
 30
0.0
 10
-33.3225102546068
 20
47.58063921916356
 30
0.0
 10
-33.32185302316984
 20
46.37023760101038
 30
0.0
 10
-33.32055503981103
 20
45.0485518259831
 30
0.0
 10
-33.31952735177657
 20
43.70801724460033
 30
0.0
 10
-33.3193164438631
 20
42.44329415058754
 30
0.0
 10
-33.31968792900685
 20
41.19510473348694
 30
0.0
 10
-33.32010890052781
 20
40.00290791452735
 30
0.0
 10
-33.32013251160313
 20
38.90389928220341
 30
0.0
 10
-33.319902967488
 20
37.80790004913032
 30
0.0
 10
-33.31939452281478
 20
36.71790137076613
 30
0.0
 10
-33.31859887274788
 20
35.63688835581032
 30
0.0
 10
-33.31757498201536
 20
34.56782868017988
 30
0.0
 10
-33.31619670551419
 20
33.58586768507089
 30
0.0
 10
-33.3151701418867
 20
32.63841649708385
 30
0.0
 10
-33.31485163212406
 20
31.67534988931357
 30
0.0
 10
-33.31491714426483
 20
30.58535405912712
 30
0.0
 10
-33.31544415246797
 20
29.38382649746248
 30
0.0
 10
-33.31637723962496
 20
28.09094515947861
 30
0.0
 10
-33.31846809169467
 20
26.20161888176715
 30
0.0
 10
-33.32059638160877
 20
23.9489798591714
 30
0.0
 10
-33.32027068587303
 20
22.35493560837676
 30
0.0
 10
-33.31983935029737
 20
21.55004273870679
 30
0.0
 10
-33.31990157479564
 20
21.29463412663056
 30
0.0
 10
-33.32011168650053
 20
21.05196102475142
 30
0.0
 10
-33.32047590743864
 20
20.8221703190026
 30
0.0
 10
-33.32102725363743
 20
20.60542305964476
 30
0.0
 10
-33.32162743890034
 20
20.40186570905846
 30
0.0
 10
-33.32269101149873
 20
20.22881448428496
 30
0.0
 10
-33.3226759568827
 20
20.08019142288888
 30
0.0
 10
-33.32238470301388
 20
19.93915933695196
 30
0.0
 10
-33.32193954910696
 20
19.7805041876701
 30
0.0
 10
-33.32128056907534
 20
19.60291691478152
 30
0.0
 10
-33.32043517031298
 20
19.41953272073138
 30
0.0
 10
-33.31949138262071
 20
19.2738375610953
 30
0.0
 10
-33.318766664169
 20
19.16753076270047
 30
0.0
 10
-33.31847422210181
 20
19.09598075341597
 30
0.0
 10
-33.31844045106987
 20
19.04330567109944
 30
0.0
 10
-33.3187126390596
 20
19.01172269713768
 30
0.0
 10
-33.31904777405017
 20
18.99813603921926
 30
0.0
 10
-33.31937808230742
 20
19.00105284500184
 30
0.0
 10
-33.31943224718864
 20
19.00153115105469
 30
0.0
  0
SPLINE
  5
5E5
330
23
100
AcDbEntity
 67
     1
  8
0
  6
Continuous
 62
     8
370
    25
100
AcDbSpline
210
0.0
220
0.0
230
1.0
 70
     8
 71
     3
 72
    12
 73
     8
 74
     0
 42
0.000000001
 43
0.00000001
 40
0.0
 40
0.0
 40
0.0
 40
0.0
 40
0.1214606381187297
 40
0.2432862421182148
 40
0.4303242175058065
 40
0.6825660101567962
 40
1.0
 40
1.0
 40
1.0
 40
1.0
 10
-33.31941111955783
 20
60.99860091720055
 30
0.0
 10
-33.31966253611374
 20
60.99788630960359
 30
0.0
 10
-33.32016612468401
 20
60.99645494715114
 30
0.0
 10
-33.32043568939941
 20
60.97130901043651
 30
0.0
 10
-33.31983472429844
 20
60.91382919316054
 30
0.0
 10
-33.31871093143939
 20
60.78946541666366
 30
0.0
 10
-33.317584503236
 20
60.63273147280437
 30
0.0
 10
-33.31695683639485
 20
60.5453963908648
 30
0.0
  0
SPLINE
  5
5E6
330
23
100
AcDbEntity
 67
     1
  8
0
  6
Continuous
 62
     8
370
    25
100
AcDbSpline
210
0.0
220
0.0
230
1.0
 70
     8
 71
     3
 72
     9
 73
     5
 74
     0
 42
0.000000001
 43
0.00000001
 40
0.0
 40
0.0
 40
0.0
 40
0.0
 40
0.9122874604954285
 40
1.0
 40
1.0
 40
1.0
 40
1.0
 10
-33.84904731964851
 20
60.39532612802375
 30
0.0
 10
-33.84966108231126
 20
60.6502828042232
 30
0.0
 10
-33.85033385563032
 20
60.92975247495724
 30
0.0
 10
-33.84929213044121
 20
60.82655381812901
 30
0.0
 10
-33.84920075807941
 20
60.81750200186515
 30
0.0
  0
SPLINE
  5
5E7
330
23
100
AcDbEntity
 67
     1
  8
0
  6
Continuous
 62
     8
370
    25
100
AcDbSpline
210
0.0
220
0.0
230
1.0
 70
    24
 71
     3
 72
    11
 73
     7
 74
     0
 42
0.000000001
 43
0.00000001
 40
0.0
 40
0.0
 40
0.0
 40
0.0
 40
0.3183231380410408
 40
0.6366462760820877
 40
0.9549694141231347
 40
1.0
 40
1.0
 40
1.0
 40
1.0
 10
-44.614558555051
 20
57.58454784436103
 30
0.0
 10
-44.614558555051
 20
57.89892507874182
 30
0.0
 10
-44.614558555051
 20
58.52767954750341
 30
0.0
 10
-44.614558555051
 20
59.04337602163575
 30
0.0
 10
-44.61455855505098
 20
59.2794140319853
 30
0.0
 10
-44.614558555051
 20
59.23491130544377
 30
0.0
 10
-44.614558555051
 20
59.22939606308524
 30
0.0
  0
LINE
  5
5E9
330
23
100
AcDbEntity
 67
     1
  8
0
  6
Continuous
 62
     7
370
    25
100
AcDbLine
 10
-74.1145585551
 20
-32.5
 30
0.0
 11
-81.6145585551
 21
-32.5
 31
0.0
  0
LINE
  5
5EA
330
23
100
AcDbEntity
 67
     1
  8
0
  6
Continuous
 62
     7
370
    25
100
AcDbLine
 10
-72.6145585551
 20
-34.0
 30
0.0
 11
-74.1145585551
 21
-32.5
 31
0.0
  0
LINE
  5
5EB
330
23
100
AcDbEntity
 67
     1
  8
0
  6
Continuous
 62
     7
370
    25
100
AcDbLine
 10
-66.6145585551
 20
-34.0
 30
0.0
 11
-72.6145585551
 21
-34.0
 31
0.0
  0
LINE
  5
5EC
330
23
100
AcDbEntity
 67
     1
  8
0
  6
Continuous
 62
     7
370
    25
100
AcDbLine
 10
-81.6145585551
 20
-47.5
 30
0.0
 11
-74.1145585551
 21
-47.5
 31
0.0
  0
LINE
  5
5ED
330
23
100
AcDbEntity
 67
     1
  8
0
  6
Continuous
 62
     7
370
    25
100
AcDbLine
 10
-74.1145585551
 20
-47.5
 30
0.0
 11
-72.6145585551
 21
-46.0
 31
0.0
  0
LINE
  5
5EE
330
23
100
AcDbEntity
 67
     1
  8
0
  6
Continuous
 62
     7
370
    25
100
AcDbLine
 10
-72.6145585551
 20
-46.0
 30
0.0
 11
-66.6145585551
 21
-46.0
 31
0.0
  0
LINE
  5
5EF
330
23
100
AcDbEntity
 67
     1
  8
0
  6
Continuous
 62
     7
370
    25
100
AcDbLine
 10
-33.3332460929
 20
-61.0
 30
0.0
 11
-31.6145585551
 21
-61.0
 31
0.0
  0
LINE
  5
5F0
330
23
100
AcDbEntity
 67
     1
  8
0
  6
Continuous
 62
     7
370
    25
100
AcDbLine
 10
-31.6145585551
 20
-19.0
 30
0.0
 11
-33.3333276475
 21
-19.0
 31
0.0
  0
LINE
  5
5F1
330
23
100
AcDbEntity
 67
     1
  8
0
  6
Continuous
 62
     7
370
    25
100
AcDbLine
 10
-65.4360984753
 20
-58.522895804
 30
0.0
 11
-44.6009216605
 21
-59.2504762109
 31
0.0
  0
LINE
  5
5F2
330
23
100
AcDbEntity
 67
     1
  8
0
  6
Continuous
 62
     7
370
    25
100
AcDbLine
 10
-55.6143897834
 20
-21.1341225708
 30
0.0
 11
-65.4360984753
 21
-21.477104196
 31
0.0
  0
LINE
  5
5F3
330
23
100
AcDbEntity
 67
     1
  8
0
  6
Continuous
 62
     7
370
    25
100
AcDbLine
 10
-44.6009216605
 20
-20.7495237891
 30
0.0
 11
-47.6146862634
 21
-20.8547667682
 31
0.0
  0
LINE
  5
5F4
330
23
100
AcDbEntity
 67
     1
  8
0
  6
Continuous
 62
     7
370
    25
100
AcDbLine
 10
-66.6145585551
 20
-56.4817430712
 30
0.0
 11
-65.4360984753
 21
-58.522895804
 31
0.0
  0
LINE
  5
5F5
330
23
100
AcDbEntity
 67
     1
  8
0
  6
Continuous
 62
     7
370
    25
100
AcDbLine
 10
-65.4360984753
 20
-21.477104196
 30
0.0
 11
-66.6145585551
 21
-23.5182569288
 31
0.0
  0
LINE
  5
5F6
330
23
100
AcDbEntity
 67
     1
  8
0
  6
Continuous
 62
     7
370
    25
100
AcDbLine
 10
-65.4360984753
 20
21.477104196
 30
0.0
 11
-44.6009216605
 21
20.7495237891
 31
0.0
  0
LINE
  5
5F7
330
23
100
AcDbEntity
 67
     1
  8
0
  6
Continuous
 62
     7
370
    25
100
AcDbLine
 10
-33.3332460928
 20
19.0
 30
0.0
 11
-31.6145585551
 21
19.0
 31
0.0
  0
LINE
  5
5F8
330
23
100
AcDbEntity
 67
     1
  8
0
  6
Continuous
 62
     7
370
    25
100
AcDbLine
 10
-66.6145585551
 20
23.5182569288
 30
0.0
 11
-65.4360984753
 21
21.477104196
 31
0.0
  0
LINE
  5
5F9
330
23
100
AcDbEntity
 67
     1
  8
0
  6
Continuous
 62
     7
370
    25
100
AcDbLine
 10
-31.6145585551
 20
61.0
 30
0.0
 11
-33.3333276475
 21
61.0
 31
0.0
  0
LINE
  5
5FA
330
23
100
AcDbEntity
 67
     1
  8
0
  6
Continuous
 62
     7
370
    25
100
AcDbLine
 10
-44.6009216605
 20
59.2504762109
 30
0.0
 11
-65.4360984753
 21
58.522895804
 31
0.0
  0
LINE
  5
5FB
330
23
100
AcDbEntity
 67
     1
  8
0
  6
Continuous
 62
     7
370
    25
100
AcDbLine
 10
-65.4360984753
 20
58.522895804
 30
0.0
 11
-66.6145585551
 21
56.4817430712
 31
0.0
  0
LINE
  5
5FC
330
23
100
AcDbEntity
 67
     1
  8
0
  6
Continuous
 62
     7
370
    25
100
AcDbLine
 10
-74.1145585551
 20
47.5
 30
0.0
 11
-81.6145585551
 21
47.5
 31
0.0
  0
LINE
  5
5FD
330
23
100
AcDbEntity
 67
     1
  8
0
  6
Continuous
 62
     7
370
    25
100
AcDbLine
 10
-72.6145585551
 20
46.0
 30
0.0
 11
-74.1145585551
 21
47.5
 31
0.0
  0
LINE
  5
5FE
330
23
100
AcDbEntity
 67
     1
  8
0
  6
Continuous
 62
     7
370
    25
100
AcDbLine
 10
-66.6145585551
 20
46.0
 30
0.0
 11
-72.6145585551
 21
46.0
 31
0.0
  0
LINE
  5
5FF
330
23
100
AcDbEntity
 67
     1
  8
0
  6
Continuous
 62
     7
370
    25
100
AcDbLine
 10
-74.1145585551
 20
32.5
 30
0.0
 11
-72.6145585551
 21
34.0
 31
0.0
  0
LINE
  5
600
330
23
100
AcDbEntity
 67
     1
  8
0
  6
Continuous
 62
     7
370
    25
100
AcDbLine
 10
-81.6145585551
 20
32.5
 30
0.0
 11
-74.1145585551
 21
32.5
 31
0.0
  0
LINE
  5
601
330
23
100
AcDbEntity
 67
     1
  8
0
  6
Continuous
 62
     7
370
    25
100
AcDbLine
 10
-72.6145585551
 20
34.0
 30
0.0
 11
-66.6145585551
 21
34.0
 31
0.0
  0
LINE
  5
602
330
23
100
AcDbEntity
 67
     1
  8
0
  6
Continuous
 62
     7
370
    25
100
AcDbLine
 10
-25.944685574
 20
-71.1313505534
 30
0.0
 11
-22.0533968547
 21
-73.9231125887
 31
0.0
  0
LINE
  5
603
330
23
100
AcDbEntity
 67
     1
  8
0
  6
Continuous
 62
     7
370
    25
100
AcDbLine
 10
-25.944685574
 20
71.1313505534
 30
0.0
 11
-25.944685574
 21
-71.1313505534
 31
0.0
  0
LINE
  5
604
330
23
100
AcDbEntity
 67
     1
  8
0
  6
Continuous
 62
     7
370
    25
100
AcDbLine
 10
-22.0533968547
 20
73.9231125887
 30
0.0
 11
-25.944685574
 21
71.1313505534
 31
0.0
  0
LINE
  5
605
330
23
100
AcDbEntity
 67
     1
  8
0
  6
Continuous
 62
     7
370
    25
100
AcDbLine
 10
-21.9957564015
 20
72.9289321881
 30
0.0
 11
-21.9957564015
 21
-72.9289321881
 31
0.0
  0
LINE
  5
606
330
23
100
AcDbEntity
 67
     1
  8
0
  6
Continuous
 62
     7
370
    25
100
AcDbLine
 10
-21.9957564015
 20
-72.9289321881
 30
0.0
 11
-20.6145585551
 21
-72.9289321881
 31
0.0
  0
LINE
  5
607
330
23
100
AcDbEntity
 67
     1
  8
0
  6
Continuous
 62
     7
370
    25
100
AcDbLine
 10
-20.6145585551
 20
72.9289321881
 30
0.0
 11
-21.9957564015
 21
72.9289321881
 31
0.0
  0
LINE
  5
608
330
23
100
AcDbEntity
 67
     1
  8
0
  6
Continuous
 62
     7
370
    25
100
AcDbLine
 10
-20.6145585551
 20
100.0
 30
0.0
 11
-20.6145585551
 21
-100.0
 31
0.0
  0
LINE
  5
609
330
23
100
AcDbEntity
 67
     1
  8
0
  6
Continuous
 62
     7
370
    25
100
AcDbLine
 10
-21.9957564015
 20
76.4644660941
 30
0.0
 11
-20.6145585551
 21
76.4644660941
 31
0.0
  0
LINE
  5
60A
330
23
100
AcDbEntity
 67
     1
  8
0
  6
Continuous
 62
     7
370
    25
100
AcDbLine
 10
-20.6145585551
 20
-76.4644660941
 30
0.0
 11
-21.9957564015
 21
-76.4644660941
 31
0.0
  0
LINE
  5
60B
330
23
100
AcDbEntity
 67
     1
  8
0
  6
Continuous
 62
     7
370
    25
100
AcDbLine
 10
-25.944685574
 20
72.8991175063
 30
0.0
 11
-22.0533968547
 21
75.6908795417
 31
0.0
  0
LINE
  5
60C
330
23
100
AcDbEntity
 67
     1
  8
0
  6
Continuous
 62
     7
370
    25
100
AcDbLine
 10
-22.0533968547
 20
-75.6908795417
 30
0.0
 11
-25.944685574
 21
-72.8991175063
 31
0.0
  0
LINE
  5
60D
330
23
100
AcDbEntity
 67
     1
  8
0
  6
Continuous
 62
     7
370
    25
100
AcDbLine
 10
-25.944685574
 20
92.4280209908
 30
0.0
 11
-25.944685574
 21
72.8991175063
 31
0.0
  0
LINE
  5
60E
330
23
100
AcDbEntity
 67
     1
  8
0
  6
Continuous
 62
     7
370
    25
100
AcDbLine
 10
-22.0533968547
 20
99.1679307595
 30
0.0
 11
-25.944685574
 21
92.4280209908
 31
0.0
  0
LINE
  5
60F
330
23
100
AcDbEntity
 67
     1
  8
0
  6
Continuous
 62
     7
370
    25
100
AcDbLine
 10
-21.9957564015
 20
98.5355339059
 30
0.0
 11
-21.9957564015
 21
76.4644660941
 31
0.0
  0
LINE
  5
610
330
23
100
AcDbEntity
 67
     1
  8
0
  6
Continuous
 62
     7
370
    25
100
AcDbLine
 10
-25.944685574
 20
-92.4280209908
 30
0.0
 11
-22.0533968547
 21
-99.1679307595
 31
0.0
  0
LINE
  5
611
330
23
100
AcDbEntity
 67
     1
  8
0
  6
Continuous
 62
     7
370
    25
100
AcDbLine
 10
-25.944685574
 20
-72.8991175063
 30
0.0
 11
-25.944685574
 21
-92.4280209908
 31
0.0
  0
LINE
  5
612
330
23
100
AcDbEntity
 67
     1
  8
0
  6
Continuous
 62
     7
370
    25
100
AcDbLine
 10
-21.9957564015
 20
-76.4644660941
 30
0.0
 11
-21.9957564015
 21
-98.5355339059
 31
0.0
  0
LINE
  5
613
330
23
100
AcDbEntity
 67
     1
  8
0
  6
Continuous
 62
     7
370
    25
100
AcDbLine
 10
-20.6145585551
 20
98.5355339059
 30
0.0
 11
-21.9957564015
 21
98.5355339059
 31
0.0
  0
LINE
  5
614
330
23
100
AcDbEntity
 67
     1
  8
0
  6
Continuous
 62
     7
370
    25
100
AcDbLine
 10
-21.9957564015
 20
-98.5355339059
 30
0.0
 11
-20.6145585551
 21
-98.5355339059
 31
0.0
  0
LINE
  5
615
330
23
100
AcDbEntity
 67
     1
  8
0
  6
Continuous
 62
     7
370
    25
100
AcDbLine
 10
-26.6145585551
 20
-71.1313505534
 30
0.0
 11
-25.944685574
 21
-71.1313505534
 31
0.0
  0
LINE
  5
616
330
23
100
AcDbEntity
 67
     1
  8
0
  6
Continuous
 62
     7
370
    25
100
AcDbLine
 10
-26.6145585551
 20
71.1313505534
 30
0.0
 11
-25.944685574
 21
71.1313505534
 31
0.0
  0
LINE
  5
617
330
23
100
AcDbEntity
 67
     1
  8
0
  6
Continuous
 62
     7
370
    25
100
AcDbLine
 10
-26.6145585551
 20
-90.6602540378
 30
0.0
 11
-26.6145585551
 21
90.6602540378
 31
0.0
  0
LINE
  5
618
330
23
100
AcDbEntity
 67
     1
  8
0
  6
Continuous
 62
     7
370
    25
100
AcDbLine
 10
-20.6145585551
 20
-100.0
 30
0.0
 11
-21.9957564015
 21
-100.0
 31
0.0
  0
LINE
  5
619
330
23
100
AcDbEntity
 67
     1
  8
0
  6
Continuous
 62
     7
370
    25
100
AcDbLine
 10
-21.9957564015
 20
-100.0
 30
0.0
 11
-25.944685574
 21
-93.1602540378
 31
0.0
  0
LINE
  5
61A
330
23
100
AcDbEntity
 67
     1
  8
0
  6
Continuous
 62
     7
370
    25
100
AcDbLine
 10
-25.944685574
 20
93.1602540378
 30
0.0
 11
-21.9957564015
 21
100.0
 31
0.0
  0
LINE
  5
61B
330
23
100
AcDbEntity
 67
     1
  8
0
  6
Continuous
 62
     7
370
    25
100
AcDbLine
 10
-21.9957564015
 20
100.0
 30
0.0
 11
-20.6145585551
 21
100.0
 31
0.0
  0
LINE
  5
61C
330
23
100
AcDbEntity
 67
     1
  8
0
  6
Continuous
 62
     7
370
    25
100
AcDbLine
 10
-47.7145585551
 20
-17.8023516187
 30
0.0
 11
-47.7145585551
 21
-20.8787833026
 31
0.0
  0
LINE
  5
61D
330
23
100
AcDbEntity
 67
     1
  8
0
  6
Continuous
 62
     7
370
    25
100
AcDbLine
 10
-55.5145585551
 20
-17.8023516187
 30
0.0
 11
-55.5145585551
 21
-21.1510511415
 31
0.0
  0
LINE
  5
61E
330
23
100
AcDbEntity
 67
     1
  8
0
  6
Continuous
 62
     7
370
    25
100
AcDbLine
 10
-47.7145585551
 20
-17.8023516187
 30
0.0
 11
-55.5145585551
 21
-17.8023516187
 31
0.0
  0
LINE
  5
61F
330
23
100
AcDbEntity
 67
     1
  8
0
  6
Continuous
 62
     7
370
    25
100
AcDbLine
 10
-55.2380957017
 20
-17.3551032044
 30
0.0
 11
-47.9910214084
 21
-17.3551032044
 31
0.0
  0
LINE
  5
620
330
23
100
AcDbEntity
 67
     1
  8
0
  6
Continuous
 62
     7
370
    25
100
AcDbLine
 10
-51.6145585551
 20
-17.3551032044
 30
0.0
 11
-51.6145585551
 21
-16.5
 31
0.0
  0
LINE
  5
621
330
23
100
AcDbEntity
 67
     1
  8
0
  6
Continuous
 62
     7
370
    25
100
AcDbLine
 10
3.1854414449
 20
-61.0
 30
0.0
 11
-20.6145585551
 21
-61.0
 31
0.0
  0
LINE
  5
622
330
23
100
AcDbEntity
 67
     1
  8
0
  6
Continuous
 62
     7
370
    25
100
AcDbLine
 10
-26.6145585551
 20
-61.0
 30
0.0
 11
-31.3145585551
 21
-61.0
 31
0.0
  0
LINE
  5
623
330
23
100
AcDbEntity
 67
     1
  8
0
  6
Continuous
 62
     7
370
    25
100
AcDbLine
 10
3.1854414449
 20
-19.0
 30
0.0
 11
-20.6145585551
 21
-19.0
 31
0.0
  0
LINE
  5
624
330
23
100
AcDbEntity
 67
     1
  8
0
  6
Continuous
 62
     7
370
    25
100
AcDbLine
 10
-26.6145585551
 20
-19.0
 30
0.0
 11
-31.3145585551
 21
-19.0
 31
0.0
  0
LINE
  5
625
330
23
100
AcDbEntity
 67
     1
  8
0
  6
Continuous
 62
     7
370
    25
100
AcDbLine
 10
-31.3145585551
 20
-19.0
 30
0.0
 11
-31.3145585551
 21
-61.0
 31
0.0
  0
LINE
  5
626
330
23
100
AcDbEntity
 67
     1
  8
0
  6
Continuous
 62
     7
370
    25
100
AcDbLine
 10
3.1854414449
 20
-61.0
 30
0.0
 11
3.1854414449
 21
-19.0
 31
0.0
  0
LINE
  5
627
330
23
100
AcDbEntity
 67
     1
  8
0
  6
Continuous
 62
     7
370
    25
100
AcDbLine
 10
-91.6145585551
 20
-57.3273535868
 30
0.0
 11
-90.6254253845
 21
-56.9285925596
 31
0.0
  0
LINE
  5
628
330
23
100
AcDbEntity
 67
     1
  8
0
  6
Continuous
 62
     7
370
    25
100
AcDbLine
 10
-90.6254253845
 20
-56.9285925596
 30
0.0
 11
-90.6254253845
 21
-58.3444755307
 31
0.0
  0
LINE
  5
629
330
23
100
AcDbEntity
 67
     1
  8
0
  6
Continuous
 62
     7
370
    25
100
AcDbLine
 10
-91.6145585551
 20
-57.9439799271
 30
0.0
 11
-90.6254253845
 21
-58.3444755307
 31
0.0
  0
LINE
  5
62A
330
23
100
AcDbEntity
 67
     1
  8
0
  6
Continuous
 62
     7
370
    25
100
AcDbLine
 10
-82.7320071333
 20
-58.3536308895
 30
0.0
 11
-82.6036917256
 21
-58.1903698418
 31
0.0
  0
LINE
  5
62B
330
23
100
AcDbEntity
 67
     1
  8
0
  6
Continuous
 62
     7
370
    25
100
AcDbLine
 10
-82.7320071333
 20
-58.3536308895
 30
0.0
 11
-90.6200366597
 21
-58.3514879646
 31
0.0
  0
LINE
  5
62C
330
23
100
AcDbEntity
 67
     1
  8
0
  6
Continuous
 62
     7
370
    25
100
AcDbLine
 10
-90.6254253845
 20
-58.3444755307
 30
0.0
 11
-90.6200366597
 21
-58.3514879646
 31
0.0
  0
LINE
  5
62D
330
23
100
AcDbEntity
 67
     1
  8
0
  6
Continuous
 62
     7
370
    25
100
AcDbLine
 10
-90.6200366597
 20
-56.9216600753
 30
0.0
 11
-90.6254253845
 21
-56.9285925596
 31
0.0
  0
LINE
  5
62E
330
23
100
AcDbEntity
 67
     1
  8
0
  6
Continuous
 62
     7
370
    25
100
AcDbLine
 10
-90.6200366597
 20
-56.9216600753
 30
0.0
 11
-82.7320071333
 21
-56.9238030002
 31
0.0
  0
LINE
  5
62F
330
23
100
AcDbEntity
 67
     1
  8
0
  6
Continuous
 62
     7
370
    25
100
AcDbLine
 10
-82.6036917256
 20
-57.085339815
 30
0.0
 11
-82.7320071333
 21
-56.9238030002
 31
0.0
  0
LINE
  5
630
330
23
100
AcDbEntity
 67
     1
  8
0
  6
Continuous
 62
     7
370
    25
100
AcDbLine
 10
-82.6036917256
 20
-58.1903698418
 30
0.0
 11
-82.6036917256
 21
-57.085339815
 31
0.0
  0
LINE
  5
631
330
23
100
AcDbEntity
 67
     1
  8
0
  6
Continuous
 62
     7
370
    25
100
AcDbLine
 10
-91.6145585551
 20
-42.0723871009
 30
0.0
 11
-90.6200366597
 21
-41.7373296854
 31
0.0
  0
LINE
  5
632
330
23
100
AcDbEntity
 67
     1
  8
0
  6
Continuous
 62
     7
370
    25
100
AcDbLine
 10
-90.6200366597
 20
-41.7373296854
 30
0.0
 11
-82.7320071333
 21
-42.0822544845
 31
0.0
  0
LINE
  5
633
330
23
100
AcDbEntity
 67
     1
  8
0
  6
Continuous
 62
     7
370
    25
100
AcDbLine
 10
-90.6200366597
 20
-64.6016456375
 30
0.0
 11
-90.6255048511
 21
-64.6024354271
 31
0.0
  0
LINE
  5
634
330
23
100
AcDbEntity
 67
     1
  8
0
  6
Continuous
 62
     7
370
    25
100
AcDbLine
 10
-91.6145585551
 20
-63.8687002518
 30
0.0
 11
-90.6255048511
 21
-64.6024354271
 31
0.0
  0
LINE
  5
635
330
23
100
AcDbEntity
 67
     1
  8
0
  6
Continuous
 62
     7
370
    25
100
AcDbLine
 10
-90.6200366597
 20
-58.3514879646
 30
0.0
 11
-90.6200366597
 21
-64.6641204561
 31
0.0
  0
LINE
  5
636
330
23
100
AcDbEntity
 67
     1
  8
0
  6
Continuous
 62
     7
370
    25
100
AcDbLine
 10
-82.7320071333
 20
-63.4916470074
 30
0.0
 11
-82.7320071333
 21
-58.3536308895
 31
0.0
  0
LINE
  5
637
330
23
100
AcDbEntity
 67
     1
  8
0
  6
Continuous
 62
     7
370
    25
100
AcDbLine
 10
-90.6200366597
 20
-64.6016456375
 30
0.0
 11
-82.7320071333
 21
-63.4248379342
 31
0.0
  0
LINE
  5
638
330
23
100
AcDbEntity
 67
     1
  8
0
  6
Continuous
 62
     7
370
    25
100
AcDbLine
 10
-91.6145585551
 20
-63.930278314
 30
0.0
 11
-91.6145585551
 21
-16.069721686
 31
0.0
  0
LINE
  5
639
330
23
100
AcDbEntity
 67
     1
  8
0
  6
Continuous
 62
     7
370
    25
100
AcDbLine
 10
-91.6145585551
 20
-21.9720735791
 30
0.0
 11
-90.6254253845
 21
-21.5733125519
 31
0.0
  0
LINE
  5
63A
330
23
100
AcDbEntity
 67
     1
  8
0
  6
Continuous
 62
     7
370
    25
100
AcDbLine
 10
-90.6254253845
 20
-21.5733125519
 30
0.0
 11
-90.6254253845
 21
-22.989195523
 31
0.0
  0
LINE
  5
63B
330
23
100
AcDbEntity
 67
     1
  8
0
  6
Continuous
 62
     7
370
    25
100
AcDbLine
 10
-91.6145585551
 20
-22.5886999194
 30
0.0
 11
-90.6254253845
 21
-22.989195523
 31
0.0
  0
LINE
  5
63C
330
23
100
AcDbEntity
 67
     1
  8
0
  6
Continuous
 62
     7
370
    25
100
AcDbLine
 10
-90.6200366597
 20
-21.5663800676
 30
0.0
 11
-90.6254253845
 21
-21.5733125519
 31
0.0
  0
LINE
  5
63D
330
23
100
AcDbEntity
 67
     1
  8
0
  6
Continuous
 62
     7
370
    25
100
AcDbLine
 10
-91.6145585551
 20
-16.0720004608
 30
0.0
 11
-90.6254253845
 21
-15.3403366601
 31
0.0
  0
LINE
  5
63E
330
23
100
AcDbEntity
 67
     1
  8
0
  6
Continuous
 62
     7
370
    25
100
AcDbLine
 10
-90.6254253845
 20
-15.3403366601
 30
0.0
 11
-90.6200366597
 21
-15.3411635473
 31
0.0
  0
LINE
  5
63F
330
23
100
AcDbEntity
 67
     1
  8
0
  6
Continuous
 62
     7
370
    25
100
AcDbLine
 10
-90.6200366597
 20
-15.3411635473
 30
0.0
 11
-90.6200366597
 21
-21.5663800676
 31
0.0
  0
LINE
  5
640
330
23
100
AcDbEntity
 67
     1
  8
0
  6
Continuous
 62
     7
370
    25
100
AcDbLine
 10
-82.7320071333
 20
-22.9983508818
 30
0.0
 11
-82.6036917256
 21
-22.8350898341
 31
0.0
  0
LINE
  5
641
330
23
100
AcDbEntity
 67
     1
  8
0
  6
Continuous
 62
     7
370
    25
100
AcDbLine
 10
-82.7320071333
 20
-22.9983508818
 30
0.0
 11
-90.6200366597
 21
-22.9962079569
 31
0.0
  0
LINE
  5
642
330
23
100
AcDbEntity
 67
     1
  8
0
  6
Continuous
 62
     7
370
    25
100
AcDbLine
 10
-90.6254253845
 20
-22.989195523
 30
0.0
 11
-90.6200366597
 21
-22.9962079569
 31
0.0
  0
LINE
  5
643
330
23
100
AcDbEntity
 67
     1
  8
0
  6
Continuous
 62
     7
370
    25
100
AcDbLine
 10
-90.6200366597
 20
-21.5663800676
 30
0.0
 11
-82.7320071333
 21
-21.5685229925
 31
0.0
  0
LINE
  5
644
330
23
100
AcDbEntity
 67
     1
  8
0
  6
Continuous
 62
     7
370
    25
100
AcDbLine
 10
-82.6036917256
 20
-21.7300598073
 30
0.0
 11
-82.7320071333
 21
-21.5685229925
 31
0.0
  0
LINE
  5
645
330
23
100
AcDbEntity
 67
     1
  8
0
  6
Continuous
 62
     7
370
    25
100
AcDbLine
 10
-82.6036917256
 20
-22.8350898341
 30
0.0
 11
-82.6036917256
 21
-21.7300598073
 31
0.0
  0
LINE
  5
646
330
23
100
AcDbEntity
 67
     1
  8
0
  6
Continuous
 62
     7
370
    25
100
AcDbLine
 10
-82.7320071333
 20
-16.5136369961
 30
0.0
 11
-90.6200366597
 21
-15.3411635473
 31
0.0
  0
LINE
  5
647
330
23
100
AcDbEntity
 67
     1
  8
0
  6
Continuous
 62
     7
370
    25
100
AcDbLine
 10
-82.7320071333
 20
-21.5685229925
 30
0.0
 11
-82.7320071333
 21
-16.5136369961
 31
0.0
  0
LINE
  5
648
330
23
100
AcDbEntity
 67
     1
  8
0
  6
Continuous
 62
     7
370
    25
100
AcDbLine
 10
-91.6145585551
 20
-37.8961193949
 30
0.0
 11
-90.6200366597
 21
-38.228232953
 31
0.0
  0
LINE
  5
649
330
23
100
AcDbEntity
 67
     1
  8
0
  6
Continuous
 62
     7
370
    25
100
AcDbLine
 10
-90.6200366597
 20
-22.9962079569
 30
0.0
 11
-90.6200366597
 21
-56.9216600753
 31
0.0
  0
LINE
  5
64A
330
23
100
AcDbEntity
 67
     1
  8
0
  6
Continuous
 62
     7
370
    25
100
AcDbLine
 10
-82.7320071333
 20
-56.9238030002
 30
0.0
 11
-82.7320071333
 21
-22.9983508818
 31
0.0
  0
LINE
  5
64B
330
23
100
AcDbEntity
 67
     1
  8
0
  6
Continuous
 62
     7
370
    25
100
AcDbLine
 10
-90.6200366597
 20
-38.228232953
 30
0.0
 11
-82.7320071333
 21
-37.8863387073
 31
0.0
  0
LINE
  5
64C
330
23
100
AcDbEntity
 67
     1
  8
0
  6
Continuous
 62
     7
370
    25
100
AcDbLine
 10
-82.7320071333
 20
-42.0822544845
 30
0.0
 11
-81.6145585551
 21
-42.5471584206
 31
0.0
  0
LINE
  5
64D
330
23
100
AcDbEntity
 67
     1
  8
0
  6
Continuous
 62
     7
370
    25
100
AcDbLine
 10
-82.6036917256
 20
-57.085339815
 30
0.0
 11
-81.6145585551
 21
-57.1517368975
 31
0.0
  0
LINE
  5
64E
330
23
100
AcDbEntity
 67
     1
  8
0
  6
Continuous
 62
     7
370
    25
100
AcDbLine
 10
-81.6145585551
 20
-58.1281405588
 30
0.0
 11
-82.6036917256
 21
-58.1903698418
 31
0.0
  0
LINE
  5
64F
330
23
100
AcDbEntity
 67
     1
  8
0
  6
Continuous
 62
     7
370
    25
100
AcDbLine
 10
-81.6145585551
 20
-62.0689232431
 30
0.0
 11
-82.603612259
 21
-63.4050855676
 31
0.0
  0
LINE
  5
650
330
23
100
AcDbEntity
 67
     1
  8
0
  6
Continuous
 62
     7
370
    25
100
AcDbLine
 10
-82.603612259
 20
-63.4050855676
 30
0.0
 11
-82.7320071333
 21
-63.4248379342
 31
0.0
  0
LINE
  5
651
330
23
100
AcDbEntity
 67
     1
  8
0
  6
Continuous
 62
     7
370
    25
100
AcDbLine
 10
-82.7320071333
 20
-16.5136369961
 30
0.0
 11
-82.6036917256
 21
-16.5321062767
 31
0.0
  0
LINE
  5
652
330
23
100
AcDbEntity
 67
     1
  8
0
  6
Continuous
 62
     7
370
    25
100
AcDbLine
 10
-82.6036917256
 20
-16.5321062767
 30
0.0
 11
-81.6145585551
 21
-17.8663999281
 31
0.0
  0
LINE
  5
653
330
23
100
AcDbEntity
 67
     1
  8
0
  6
Continuous
 62
     7
370
    25
100
AcDbLine
 10
-82.6036917256
 20
-21.7300598073
 30
0.0
 11
-81.6145585551
 21
-21.7964568898
 31
0.0
  0
LINE
  5
654
330
23
100
AcDbEntity
 67
     1
  8
0
  6
Continuous
 62
     7
370
    25
100
AcDbLine
 10
-82.6036917256
 20
-22.8350898341
 30
0.0
 11
-81.6145585551
 21
-22.7728605511
 31
0.0
  0
LINE
  5
655
330
23
100
AcDbEntity
 67
     1
  8
0
  6
Continuous
 62
     7
370
    25
100
AcDbLine
 10
-81.6145585551
 20
-17.8627915775
 30
0.0
 11
-81.6145585551
 21
-62.1372084225
 31
0.0
  0
LINE
  5
656
330
23
100
AcDbEntity
 67
     1
  8
0
  6
Continuous
 62
     7
370
    25
100
AcDbLine
 10
-82.7320071333
 20
-37.8863387073
 30
0.0
 11
-81.6145585551
 21
-37.4255194768
 31
0.0
  0
LINE
  5
657
330
23
100
AcDbEntity
 67
     1
  8
0
  6
Continuous
 62
     7
370
    25
100
AcDbLine
 10
-90.6254253845
 20
-15.3351041908
 30
0.0
 11
-90.6254253845
 21
-15.3403366601
 31
0.0
  0
LINE
  5
658
330
23
100
AcDbEntity
 67
     1
  8
0
  6
Continuous
 62
     7
370
    25
100
AcDbLine
 10
-90.6200366597
 20
-15.3358795439
 30
0.0
 11
-90.6254253845
 21
-15.3351041908
 31
0.0
  0
LINE
  5
659
330
23
100
AcDbEntity
 67
     1
  8
0
  6
Continuous
 62
     7
370
    25
100
AcDbLine
 10
-90.6200366597
 20
-15.3358795439
 30
0.0
 11
-82.7320071333
 21
-16.5083529926
 31
0.0
  0
LINE
  5
65A
330
23
100
AcDbEntity
 67
     1
  8
0
  6
Continuous
 62
     7
370
    25
100
AcDbLine
 10
-82.6036917256
 20
-16.5280225807
 30
0.0
 11
-82.7320071333
 21
-16.5083529926
 31
0.0
  0
LINE
  5
65B
330
23
100
AcDbEntity
 67
     1
  8
0
  6
Continuous
 62
     7
370
    25
100
AcDbLine
 10
-82.6036917256
 20
-16.5321062767
 30
0.0
 11
-82.6036917256
 21
-16.5280225807
 31
0.0
  0
LINE
  5
65C
330
23
100
AcDbEntity
 67
     1
  8
0
  6
Continuous
 62
     7
370
    25
100
AcDbLine
 10
-91.6145585551
 20
-16.069721686
 30
0.0
 11
-90.6254253845
 21
-15.3351041908
 31
0.0
  0
LINE
  5
65D
330
23
100
AcDbEntity
 67
     1
  8
0
  6
Continuous
 62
     7
370
    25
100
AcDbLine
 10
-82.6036917256
 20
-16.5280225807
 30
0.0
 11
-81.6145585551
 21
-17.8627915775
 31
0.0
  0
LINE
  5
65E
330
23
100
AcDbEntity
 67
     1
  8
0
  6
Continuous
 62
     7
370
    25
100
AcDbLine
 10
-74.1145585551
 20
-47.5
 30
0.0
 11
-74.1145585551
 21
-32.5
 31
0.0
  0
LINE
  5
65F
330
23
100
AcDbEntity
 67
     1
  8
0
  6
Continuous
 62
     7
370
    25
100
AcDbLine
 10
-74.1145585551
 20
-45.2935991962
 30
0.0
 11
-81.6145585551
 21
-45.2935991962
 31
0.0
  0
LINE
  5
660
330
23
100
AcDbEntity
 67
     1
  8
0
  6
Continuous
 62
     7
370
    25
100
AcDbLine
 10
-72.6145585551
 20
-34.0
 30
0.0
 11
-72.6145585551
 21
-46.0
 31
0.0
  0
LINE
  5
661
330
23
100
AcDbEntity
 67
     1
  8
0
  6
Continuous
 62
     7
370
    25
100
AcDbLine
 10
-72.6145585551
 20
-44.234879357
 30
0.0
 11
-74.1145585551
 21
-45.2935991962
 31
0.0
  0
LINE
  5
662
330
23
100
AcDbEntity
 67
     1
  8
0
  6
Continuous
 62
     7
370
    25
100
AcDbLine
 10
-90.6200366597
 20
-64.6641204561
 30
0.0
 11
-82.7320071333
 21
-63.4916470074
 31
0.0
  0
LINE
  5
663
330
23
100
AcDbEntity
 67
     1
  8
0
  6
Continuous
 62
     7
370
    25
100
AcDbLine
 10
-90.6200366597
 20
-64.6641204561
 30
0.0
 11
-90.6254253845
 21
-64.6648958092
 31
0.0
  0
LINE
  5
664
330
23
100
AcDbEntity
 67
     1
  8
0
  6
Continuous
 62
     7
370
    25
100
AcDbLine
 10
-90.6254253845
 20
-64.6648958092
 30
0.0
 11
-91.6145585551
 21
-63.930278314
 31
0.0
  0
LINE
  5
665
330
23
100
AcDbEntity
 67
     1
  8
0
  6
Continuous
 62
     7
370
    25
100
AcDbLine
 10
-81.6145585551
 20
-62.1372084225
 30
0.0
 11
-82.6036917256
 21
-63.4719774193
 31
0.0
  0
LINE
  5
666
330
23
100
AcDbEntity
 67
     1
  8
0
  6
Continuous
 62
     7
370
    25
100
AcDbLine
 10
-82.6036917256
 20
-63.4719774193
 30
0.0
 11
-82.7320071333
 21
-63.4916470074
 31
0.0
  0
LINE
  5
667
330
23
100
AcDbEntity
 67
     1
  8
0
  6
Continuous
 62
     7
370
    25
100
AcDbLine
 10
15.6854414449
 20
19.0
 30
0.0
 11
-20.6145585551
 21
19.0
 31
0.0
  0
LINE
  5
668
330
23
100
AcDbEntity
 67
     1
  8
0
  6
Continuous
 62
     7
370
    25
100
AcDbLine
 10
-26.6145585551
 20
19.0
 30
0.0
 11
-31.3145585551
 21
19.0
 31
0.0
  0
LINE
  5
669
330
23
100
AcDbEntity
 67
     1
  8
0
  6
Continuous
 62
     7
370
    25
100
AcDbLine
 10
-31.3145585551
 20
61.0
 30
0.0
 11
-31.3145585551
 21
19.0
 31
0.0
  0
LINE
  5
66A
330
23
100
AcDbEntity
 67
     1
  8
0
  6
Continuous
 62
     7
370
    25
100
AcDbLine
 10
15.6854414449
 20
61.0
 30
0.0
 11
-20.6145585551
 21
61.0
 31
0.0
  0
LINE
  5
66B
330
23
100
AcDbEntity
 67
     1
  8
0
  6
Continuous
 62
     7
370
    25
100
AcDbLine
 10
-26.6145585551
 20
61.0
 30
0.0
 11
-31.3145585551
 21
61.0
 31
0.0
  0
LINE
  5
66C
330
23
100
AcDbEntity
 67
     1
  8
0
  6
Continuous
 62
     7
370
    25
100
AcDbLine
 10
15.6854414449
 20
19.0
 30
0.0
 11
15.6854414449
 21
61.0
 31
0.0
  0
LINE
  5
66D
330
23
100
AcDbEntity
 67
     1
  8
0
  6
Continuous
 62
     7
370
    25
100
AcDbLine
 10
-33.3164142648
 20
-40.0
 30
0.0
 11
-31.6145585551
 21
-40.0
 31
0.0
  0
LINE
  5
66E
330
23
100
AcDbEntity
 67
     1
  8
0
  6
Continuous
 62
     7
370
    25
100
AcDbLine
 10
-31.6145585551
 20
-61.0
 30
0.0
 11
-31.6145585551
 21
-19.0
 31
0.0
  0
LINE
  5
66F
330
23
100
AcDbEntity
 67
     1
  8
0
  6
Continuous
 62
     7
370
    25
100
AcDbLine
 10
-65.4360984753
 20
-21.477104196
 30
0.0
 11
-65.4360984753
 21
-58.522895804
 31
0.0
  0
LINE
  5
670
330
23
100
AcDbEntity
 67
     1
  8
0
  6
Continuous
 62
     7
370
    25
100
AcDbLine
 10
-66.6145585551
 20
-40.0
 30
0.0
 11
-44.6145585551
 21
-40.0
 31
0.0
  0
LINE
  5
671
330
23
100
AcDbEntity
 67
     1
  8
0
  6
Continuous
 62
     7
370
    25
100
AcDbLine
 10
-66.6145585551
 20
-56.4817430712
 30
0.0
 11
-66.6145585551
 21
-23.5182569288
 31
0.0
  0
LINE
  5
672
330
23
100
AcDbEntity
 67
     1
  8
0
  6
Continuous
 62
     7
370
    25
100
AcDbLine
 10
-44.6145585551
 20
20.7706039388
 30
0.0
 11
-44.6145585551
 21
20.7764702566
 31
0.0
  0
LINE
  5
673
330
23
100
AcDbEntity
 67
     1
  8
0
  6
Continuous
 62
     7
370
    25
100
AcDbLine
 10
-65.4360984753
 20
58.522895804
 30
0.0
 11
-65.4360984753
 21
21.477104196
 31
0.0
  0
LINE
  5
674
330
23
100
AcDbEntity
 67
     1
  8
0
  6
Continuous
 62
     7
370
    25
100
AcDbLine
 10
-65.4360984753
 20
56.9203505185
 30
0.0
 11
-44.6145585551
 21
57.5845478444
 31
0.0
  0
LINE
  5
675
330
23
100
AcDbEntity
 67
     1
  8
0
  6
Continuous
 62
     7
370
    25
100
AcDbLine
 10
-33.8494483369
 20
19.1578177305
 30
0.0
 11
-33.8490913854
 21
19.1913895288
 31
0.0
  0
LINE
  5
676
330
23
100
AcDbEntity
 67
     1
  8
0
  6
Continuous
 62
     7
370
    25
100
AcDbLine
 10
-33.3164142648
 20
59.1831431029
 30
0.0
 11
-31.6145585551
 21
59.1831431029
 31
0.0
  0
LINE
  5
677
330
23
100
AcDbEntity
 67
     1
  8
0
  6
Continuous
 62
     7
370
    25
100
AcDbLine
 10
-31.6145585551
 20
19.0
 30
0.0
 11
-31.6145585551
 21
61.0
 31
0.0
  0
LINE
  5
678
330
23
100
AcDbEntity
 67
     1
  8
0
  6
Continuous
 62
     7
370
    25
100
AcDbLine
 10
-66.6145585551
 20
55.0557921867
 30
0.0
 11
-65.4360984753
 21
56.9203505185
 31
0.0
  0
LINE
  5
679
330
23
100
AcDbEntity
 67
     1
  8
0
  6
Continuous
 62
     7
370
    25
100
AcDbLine
 10
-66.6145585551
 20
23.5182569288
 30
0.0
 11
-66.6145585551
 21
56.4817430712
 31
0.0
  0
LINE
  5
67A
330
23
100
AcDbEntity
 67
     1
  8
0
  6
Continuous
 62
     7
370
    25
100
AcDbLine
 10
-33.8492007581
 20
60.8175020019
 30
0.0
 11
-33.8490885556
 21
60.8070907301
 31
0.0
  0
LINE
  5
67B
330
23
100
AcDbEntity
 67
     1
  8
0
  6
Continuous
 62
     7
370
    25
100
AcDbLine
 10
-44.6145585551
 20
59.2293960631
 30
0.0
 11
-44.6145585551
 21
59.2235297434
 31
0.0
  0
LINE
  5
67C
330
23
100
AcDbEntity
 67
     1
  8
0
  6
Continuous
 62
     7
370
    25
100
AcDbLine
 10
-90.6200366597
 20
58.2985641403
 30
0.0
 11
-90.6254253845
 21
58.2916275119
 31
0.0
  0
LINE
  5
67D
330
23
100
AcDbEntity
 67
     1
  8
0
  6
Continuous
 62
     7
370
    25
100
AcDbLine
 10
-91.6145585551
 20
57.8968973926
 30
0.0
 11
-90.6254253845
 21
58.2916275119
 31
0.0
  0
LINE
  5
67E
330
23
100
AcDbEntity
 67
     1
  8
0
  6
Continuous
 62
     7
370
    25
100
AcDbLine
 10
-91.6145585551
 20
63.8293264621
 30
0.0
 11
-90.6254253845
 21
64.5587849908
 31
0.0
  0
LINE
  5
67F
330
23
100
AcDbEntity
 67
     1
  8
0
  6
Continuous
 62
     7
370
    25
100
AcDbLine
 10
-90.6254253845
 20
64.5587849908
 30
0.0
 11
-90.6200366597
 21
64.5579196953
 31
0.0
  0
LINE
  5
680
330
23
100
AcDbEntity
 67
     1
  8
0
  6
Continuous
 62
     7
370
    25
100
AcDbLine
 10
-90.6200366597
 20
64.5579196953
 30
0.0
 11
-90.6200366597
 21
58.2985641403
 31
0.0
  0
LINE
  5
681
330
23
100
AcDbEntity
 67
     1
  8
0
  6
Continuous
 62
     7
370
    25
100
AcDbLine
 10
-90.6254253845
 20
58.2916275119
 30
0.0
 11
-90.6254253845
 21
56.8757944609
 31
0.0
  0
LINE
  5
682
330
23
100
AcDbEntity
 67
     1
  8
0
  6
Continuous
 62
     7
370
    25
100
AcDbLine
 10
-91.6145585551
 20
57.2802927928
 30
0.0
 11
-90.6254253845
 21
56.8757944609
 31
0.0
  0
LINE
  5
683
330
23
100
AcDbEntity
 67
     1
  8
0
  6
Continuous
 62
     7
370
    25
100
AcDbLine
 10
-82.7320071333
 20
56.8730676778
 30
0.0
 11
-82.6036917256
 21
57.036427467
 31
0.0
  0
LINE
  5
684
330
23
100
AcDbEntity
 67
     1
  8
0
  6
Continuous
 62
     7
370
    25
100
AcDbLine
 10
-82.7320071333
 20
56.8730676778
 30
0.0
 11
-90.6200366597
 21
56.8687866627
 31
0.0
  0
LINE
  5
685
330
23
100
AcDbEntity
 67
     1
  8
0
  6
Continuous
 62
     7
370
    25
100
AcDbLine
 10
-90.6254253845
 20
56.8757944609
 30
0.0
 11
-90.6200366597
 21
56.8687866627
 31
0.0
  0
LINE
  5
686
330
23
100
AcDbEntity
 67
     1
  8
0
  6
Continuous
 62
     7
370
    25
100
AcDbLine
 10
-90.6200366597
 20
58.2985641403
 30
0.0
 11
-82.7320071333
 21
58.3028451553
 31
0.0
  0
LINE
  5
687
330
23
100
AcDbEntity
 67
     1
  8
0
  6
Continuous
 62
     7
370
    25
100
AcDbLine
 10
-82.6036917256
 20
58.1414185336
 30
0.0
 11
-82.7320071333
 21
58.3028451553
 31
0.0
  0
LINE
  5
688
330
23
100
AcDbEntity
 67
     1
  8
0
  6
Continuous
 62
     7
370
    25
100
AcDbLine
 10
-82.6036917256
 20
57.036427467
 30
0.0
 11
-82.6036917256
 21
58.1414185336
 31
0.0
  0
LINE
  5
689
330
23
100
AcDbEntity
 67
     1
  8
0
  6
Continuous
 62
     7
370
    25
100
AcDbLine
 10
-82.7320071333
 20
63.3854521038
 30
0.0
 11
-90.6200366597
 21
64.5579196953
 31
0.0
  0
LINE
  5
68A
330
23
100
AcDbEntity
 67
     1
  8
0
  6
Continuous
 62
     7
370
    25
100
AcDbLine
 10
-82.7320071333
 20
58.3028451553
 30
0.0
 11
-82.7320071333
 21
63.3854521038
 31
0.0
  0
LINE
  5
68B
330
23
100
AcDbEntity
 67
     1
  8
0
  6
Continuous
 62
     7
370
    25
100
AcDbLine
 10
-91.6145585551
 20
42.0566654438
 30
0.0
 11
-90.6200366597
 21
41.7201410869
 31
0.0
  0
LINE
  5
68C
330
23
100
AcDbEntity
 67
     1
  8
0
  6
Continuous
 62
     7
370
    25
100
AcDbLine
 10
-90.6200366597
 20
41.7201410869
 30
0.0
 11
-82.7320071333
 21
42.0665760286
 31
0.0
  0
LINE
  5
68D
330
23
100
AcDbEntity
 67
     1
  8
0
  6
Continuous
 62
     7
370
    25
100
AcDbLine
 10
-91.6145585551
 20
22.5417940078
 30
0.0
 11
-90.6254253845
 21
22.9365241271
 31
0.0
  0
LINE
  5
68E
330
23
100
AcDbEntity
 67
     1
  8
0
  6
Continuous
 62
     7
370
    25
100
AcDbLine
 10
-91.6145585551
 20
16.0329007361
 30
0.0
 11
-91.6145585551
 21
63.9640752708
 31
0.0
  0
LINE
  5
68F
330
23
100
AcDbEntity
 67
     1
  8
0
  6
Continuous
 62
     7
370
    25
100
AcDbLine
 10
-91.6145585551
 20
37.8804186009
 30
0.0
 11
-90.6200366597
 21
38.2110618848
 31
0.0
  0
LINE
  5
690
330
23
100
AcDbEntity
 67
     1
  8
0
  6
Continuous
 62
     7
370
    25
100
AcDbLine
 10
-90.6200366597
 20
56.8687866627
 30
0.0
 11
-90.6200366597
 21
22.9434607554
 31
0.0
  0
LINE
  5
691
330
23
100
AcDbEntity
 67
     1
  8
0
  6
Continuous
 62
     7
370
    25
100
AcDbLine
 10
-90.6200366597
 20
22.9434607554
 30
0.0
 11
-90.6254253845
 21
22.9365241271
 31
0.0
  0
LINE
  5
692
330
23
100
AcDbEntity
 67
     1
  8
0
  6
Continuous
 62
     7
370
    25
100
AcDbLine
 10
-90.6254253845
 20
22.9365241271
 30
0.0
 11
-90.6254253845
 21
21.520691076
 31
0.0
  0
LINE
  5
693
330
23
100
AcDbEntity
 67
     1
  8
0
  6
Continuous
 62
     7
370
    25
100
AcDbLine
 10
-91.6145585551
 20
21.925189408
 30
0.0
 11
-90.6254253845
 21
21.520691076
 31
0.0
  0
LINE
  5
694
330
23
100
AcDbEntity
 67
     1
  8
0
  6
Continuous
 62
     7
370
    25
100
AcDbLine
 10
-82.7320071333
 20
21.5179642929
 30
0.0
 11
-82.6036917256
 21
21.6813240821
 31
0.0
  0
LINE
  5
695
330
23
100
AcDbEntity
 67
     1
  8
0
  6
Continuous
 62
     7
370
    25
100
AcDbLine
 10
-82.7320071333
 20
21.5179642929
 30
0.0
 11
-90.6200366597
 21
21.5136832778
 31
0.0
  0
LINE
  5
696
330
23
100
AcDbEntity
 67
     1
  8
0
  6
Continuous
 62
     7
370
    25
100
AcDbLine
 10
-90.6254253845
 20
21.520691076
 30
0.0
 11
-90.6200366597
 21
21.5136832778
 31
0.0
  0
LINE
  5
697
330
23
100
AcDbEntity
 67
     1
  8
0
  6
Continuous
 62
     7
370
    25
100
AcDbLine
 10
-90.6200366597
 20
22.9434607554
 30
0.0
 11
-82.7320071333
 21
22.9477417705
 31
0.0
  0
LINE
  5
698
330
23
100
AcDbEntity
 67
     1
  8
0
  6
Continuous
 62
     7
370
    25
100
AcDbLine
 10
-82.6036917256
 20
22.7863151487
 30
0.0
 11
-82.7320071333
 21
22.9477417705
 31
0.0
  0
LINE
  5
699
330
23
100
AcDbEntity
 67
     1
  8
0
  6
Continuous
 62
     7
370
    25
100
AcDbLine
 10
-82.6036917256
 20
21.6813240821
 30
0.0
 11
-82.6036917256
 21
22.7863151487
 31
0.0
  0
LINE
  5
69A
330
23
100
AcDbEntity
 67
     1
  8
0
  6
Continuous
 62
     7
370
    25
100
AcDbLine
 10
-90.6200366597
 20
38.2110618848
 30
0.0
 11
-82.7320071333
 21
37.8706812127
 31
0.0
  0
LINE
  5
69B
330
23
100
AcDbEntity
 67
     1
  8
0
  6
Continuous
 62
     7
370
    25
100
AcDbLine
 10
-82.7320071333
 20
22.9477417705
 30
0.0
 11
-82.7320071333
 21
56.8730676778
 31
0.0
  0
LINE
  5
69C
330
23
100
AcDbEntity
 67
     1
  8
0
  6
Continuous
 62
     7
370
    25
100
AcDbLine
 10
-90.6200366597
 20
15.2977386871
 30
0.0
 11
-90.6255048511
 21
15.2969874685
 31
0.0
  0
LINE
  5
69D
330
23
100
AcDbEntity
 67
     1
  8
0
  6
Continuous
 62
     7
370
    25
100
AcDbLine
 10
-91.6145585551
 20
16.0329007361
 30
0.0
 11
-90.6255048511
 21
15.2969874685
 31
0.0
  0
LINE
  5
69E
330
23
100
AcDbEntity
 67
     1
  8
0
  6
Continuous
 62
     7
370
    25
100
AcDbLine
 10
-90.6200366597
 20
21.5136832778
 30
0.0
 11
-90.6200366597
 21
15.2977386871
 31
0.0
  0
LINE
  5
69F
330
23
100
AcDbEntity
 67
     1
  8
0
  6
Continuous
 62
     7
370
    25
100
AcDbLine
 10
-82.7320071333
 20
16.4745168076
 30
0.0
 11
-82.7320071333
 21
21.5179642929
 31
0.0
  0
LINE
  5
6A0
330
23
100
AcDbEntity
 67
     1
  8
0
  6
Continuous
 62
     7
370
    25
100
AcDbLine
 10
-90.6200366597
 20
15.2977386871
 30
0.0
 11
-82.7320071333
 21
16.4745168076
 31
0.0
  0
LINE
  5
6A1
330
23
100
AcDbEntity
 67
     1
  8
0
  6
Continuous
 62
     7
370
    25
100
AcDbLine
 10
-82.7320071333
 20
63.3854521038
 30
0.0
 11
-82.6036917256
 21
63.3678775973
 31
0.0
  0
LINE
  5
6A2
330
23
100
AcDbEntity
 67
     1
  8
0
  6
Continuous
 62
     7
370
    25
100
AcDbLine
 10
-82.6036917256
 20
63.3678775973
 30
0.0
 11
-81.6145585551
 21
62.0339449234
 31
0.0
  0
LINE
  5
6A3
330
23
100
AcDbEntity
 67
     1
  8
0
  6
Continuous
 62
     7
370
    25
100
AcDbLine
 10
-82.6036917256
 20
58.1414185336
 30
0.0
 11
-81.6145585551
 21
58.0823355625
 31
0.0
  0
LINE
  5
6A4
330
23
100
AcDbEntity
 67
     1
  8
0
  6
Continuous
 62
     7
370
    25
100
AcDbLine
 10
-82.6036917256
 20
57.036427467
 30
0.0
 11
-81.6145585551
 21
57.1059663264
 31
0.0
  0
LINE
  5
6A5
330
23
100
AcDbEntity
 67
     1
  8
0
  6
Continuous
 62
     7
370
    25
100
AcDbLine
 10
-82.7320071333
 20
42.0665760286
 30
0.0
 11
-81.6145585551
 21
42.5335153973
 31
0.0
  0
LINE
  5
6A6
330
23
100
AcDbEntity
 67
     1
  8
0
  6
Continuous
 62
     7
370
    25
100
AcDbLine
 10
-82.7320071333
 20
37.8706812127
 30
0.0
 11
-81.6145585551
 21
37.4119020394
 31
0.0
  0
LINE
  5
6A7
330
23
100
AcDbEntity
 67
     1
  8
0
  6
Continuous
 62
     7
370
    25
100
AcDbLine
 10
-82.6036917256
 20
22.7863151487
 30
0.0
 11
-81.6145585551
 21
22.7272321776
 31
0.0
  0
LINE
  5
6A8
330
23
100
AcDbEntity
 67
     1
  8
0
  6
Continuous
 62
     7
370
    25
100
AcDbLine
 10
-81.6145585551
 20
21.7508629415
 30
0.0
 11
-82.6036917256
 21
21.6813240821
 31
0.0
  0
LINE
  5
6A9
330
23
100
AcDbEntity
 67
     1
  8
0
  6
Continuous
 62
     7
370
    25
100
AcDbLine
 10
-81.6145585551
 20
62.1719944851
 30
0.0
 11
-81.6145585551
 21
17.8316519245
 31
0.0
  0
LINE
  5
6AA
330
23
100
AcDbEntity
 67
     1
  8
0
  6
Continuous
 62
     7
370
    25
100
AcDbLine
 10
-81.6145585551
 20
17.8316519245
 30
0.0
 11
-82.603612259
 21
16.4951540905
 31
0.0
  0
LINE
  5
6AB
330
23
100
AcDbEntity
 67
     1
  8
0
  6
Continuous
 62
     7
370
    25
100
AcDbLine
 10
-82.603612259
 20
16.4951540905
 30
0.0
 11
-82.7320071333
 21
16.4745168076
 31
0.0
  0
LINE
  5
6AC
330
23
100
AcDbEntity
 67
     1
  8
0
  6
Continuous
 62
     7
370
    25
100
AcDbLine
 10
-90.6254253845
 20
64.5717749147
 30
0.0
 11
-90.6254253845
 21
64.5587849908
 31
0.0
  0
LINE
  5
6AD
330
23
100
AcDbEntity
 67
     1
  8
0
  6
Continuous
 62
     7
370
    25
100
AcDbLine
 10
-90.6200366597
 20
64.571037556
 30
0.0
 11
-90.6254253845
 21
64.5717749147
 31
0.0
  0
LINE
  5
6AE
330
23
100
AcDbEntity
 67
     1
  8
0
  6
Continuous
 62
     7
370
    25
100
AcDbLine
 10
-90.6200366597
 20
64.571037556
 30
0.0
 11
-82.7320071333
 21
63.3985699645
 31
0.0
  0
LINE
  5
6AF
330
23
100
AcDbEntity
 67
     1
  8
0
  6
Continuous
 62
     7
370
    25
100
AcDbLine
 10
-82.6036917256
 20
63.3780156216
 30
0.0
 11
-82.7320071333
 21
63.3985699645
 31
0.0
  0
LINE
  5
6B0
330
23
100
AcDbEntity
 67
     1
  8
0
  6
Continuous
 62
     7
370
    25
100
AcDbLine
 10
-82.6036917256
 20
63.3678775973
 30
0.0
 11
-82.6036917256
 21
63.3780156216
 31
0.0
  0
LINE
  5
6B1
330
23
100
AcDbEntity
 67
     1
  8
0
  6
Continuous
 62
     7
370
    25
100
AcDbLine
 10
-91.6145585551
 20
63.8349836593
 30
0.0
 11
-90.6254253845
 21
64.5717749147
 31
0.0
  0
LINE
  5
6B2
330
23
100
AcDbEntity
 67
     1
  8
0
  6
Continuous
 62
     7
370
    25
100
AcDbLine
 10
-82.6036917256
 20
63.3780156216
 30
0.0
 11
-81.6145585551
 21
62.0429028737
 31
0.0
  0
LINE
  5
6B3
330
23
100
AcDbEntity
 67
     1
  8
0
  6
Continuous
 62
     7
370
    25
100
AcDbLine
 10
-74.1145585551
 20
32.5
 30
0.0
 11
-74.1145585551
 21
47.5
 31
0.0
  0
LINE
  5
6B4
330
23
100
AcDbEntity
 67
     1
  8
0
  6
Continuous
 62
     7
370
    25
100
AcDbLine
 10
-74.1145585551
 20
34.6773707505
 30
0.0
 11
-81.6145585551
 21
34.6773707505
 31
0.0
  0
LINE
  5
6B5
330
23
100
AcDbEntity
 67
     1
  8
0
  6
Continuous
 62
     7
370
    25
100
AcDbLine
 10
-72.6145585551
 20
46.0
 30
0.0
 11
-72.6145585551
 21
34.0
 31
0.0
  0
LINE
  5
6B6
330
23
100
AcDbEntity
 67
     1
  8
0
  6
Continuous
 62
     7
370
    25
100
AcDbLine
 10
-72.6145585551
 20
35.7418966004
 30
0.0
 11
-74.1145585551
 21
34.6773707505
 31
0.0
  0
LINE
  5
6B7
330
23
100
AcDbEntity
 67
     1
  8
0
  6
Continuous
 62
     7
370
    25
100
AcDbLine
 10
-90.6200366597
 20
64.6870113068
 30
0.0
 11
-90.6200366597
 21
64.571037556
 31
0.0
  0
LINE
  5
6B8
330
23
100
AcDbEntity
 67
     1
  8
0
  6
Continuous
 62
     7
370
    25
100
AcDbLine
 10
-82.7320071333
 20
63.5145437153
 30
0.0
 11
-90.6200366597
 21
64.6870113068
 31
0.0
  0
LINE
  5
6B9
330
23
100
AcDbEntity
 67
     1
  8
0
  6
Continuous
 62
     7
370
    25
100
AcDbLine
 10
-82.7320071333
 20
63.3985699645
 30
0.0
 11
-82.7320071333
 21
63.5145437153
 31
0.0
  0
LINE
  5
6BA
330
23
100
AcDbEntity
 67
     1
  8
0
  6
Continuous
 62
     7
370
    25
100
AcDbLine
 10
-91.6145585551
 20
63.9584180735
 30
0.0
 11
-90.6254253845
 21
64.6878766023
 31
0.0
  0
LINE
  5
6BB
330
23
100
AcDbEntity
 67
     1
  8
0
  6
Continuous
 62
     7
370
    25
100
AcDbLine
 10
-90.6254253845
 20
64.6878766023
 30
0.0
 11
-90.6200366597
 21
64.6870113068
 31
0.0
  0
LINE
  5
6BC
330
23
100
AcDbEntity
 67
     1
  8
0
  6
Continuous
 62
     7
370
    25
100
AcDbLine
 10
-82.7320071333
 20
63.5145437153
 30
0.0
 11
-82.6036917256
 21
63.4969692088
 31
0.0
  0
LINE
  5
6BD
330
23
100
AcDbEntity
 67
     1
  8
0
  6
Continuous
 62
     7
370
    25
100
AcDbLine
 10
-82.6036917256
 20
63.4969692088
 30
0.0
 11
-81.6145585551
 21
62.1630365348
 31
0.0
  0
LINE
  5
6BE
330
23
100
AcDbEntity
 67
     1
  8
0
  6
Continuous
 62
     7
370
    25
100
AcDbLine
 10
-90.6254253845
 20
64.7008665262
 30
0.0
 11
-90.6254253845
 21
64.6878766023
 31
0.0
  0
LINE
  5
6BF
330
23
100
AcDbEntity
 67
     1
  8
0
  6
Continuous
 62
     7
370
    25
100
AcDbLine
 10
-90.6200366597
 20
64.7001291674
 30
0.0
 11
-90.6254253845
 21
64.7008665262
 31
0.0
  0
LINE
  5
6C0
330
23
100
AcDbEntity
 67
     1
  8
0
  6
Continuous
 62
     7
370
    25
100
AcDbLine
 10
-90.6200366597
 20
64.7001291674
 30
0.0
 11
-82.7320071333
 21
63.5276615759
 31
0.0
  0
LINE
  5
6C1
330
23
100
AcDbEntity
 67
     1
  8
0
  6
Continuous
 62
     7
370
    25
100
AcDbLine
 10
-82.6036917256
 20
63.5071072331
 30
0.0
 11
-82.7320071333
 21
63.5276615759
 31
0.0
  0
LINE
  5
6C2
330
23
100
AcDbEntity
 67
     1
  8
0
  6
Continuous
 62
     7
370
    25
100
AcDbLine
 10
-82.6036917256
 20
63.4969692088
 30
0.0
 11
-82.6036917256
 21
63.5071072331
 31
0.0
  0
LINE
  5
6C3
330
23
100
AcDbEntity
 67
     1
  8
0
  6
Continuous
 62
     7
370
    25
100
AcDbLine
 10
-90.6254253845
 20
64.7008665262
 30
0.0
 11
-91.6145585551
 21
63.9640752708
 31
0.0
  0
LINE
  5
6C4
330
23
100
AcDbEntity
 67
     1
  8
0
  6
Continuous
 62
     7
370
    25
100
AcDbLine
 10
-82.6036917256
 20
63.5071072331
 30
0.0
 11
-81.6145585551
 21
62.1719944851
 31
0.0
  0
LINE
  5
6C5
330
23
100
AcDbEntity
 67
     1
  8
0
  6
Continuous
 62
     8
370
    25
100
AcDbLine
 10
-72.6145585551
 20
-44.234879357
 30
0.0
 11
-66.6145585551
 21
-44.234879357
 31
0.0
  0
LINE
  5
6C6
330
23
100
AcDbEntity
 67
     1
  8
0
  6
Continuous
 62
     8
370
    25
100
AcDbLine
 10
-72.6145585551
 20
35.7418966004
 30
0.0
 11
-66.6145585551
 21
35.7418966004
 31
0.0
  0
ARC
  5
6C7
330
23
100
AcDbEntity
 67
     1
  8
0
  6
Continuous
 62
     7
370
    25
100
AcDbCircle
 10
-51.6145585551
 20
-24.605
 30
0.0
 40
8.105000000000127
100
AcDbArc
 50
63.4438719881
 51
116.5561280119
  0
ARC
  5
6C8
330
23
100
AcDbEntity
 67
     1
  8
0
  6
Continuous
 62
     7
370
    25
100
AcDbCircle
 10
-30.5538255719
 20
-72.931514778
 30
0.0
 40
8.558069559999202
100
AcDbArc
 50
353.34636544
 51
0.0172902897
  0
ARC
  5
6C9
330
23
100
AcDbEntity
 67
     1
  8
0
  6
Continuous
 62
     7
370
    25
100
AcDbCircle
 10
-30.5538255719
 20
72.931514778
 30
0.0
 40
8.5580695599992
100
AcDbArc
 50
359.9827097103
 51
6.65363456
  0
ARC
  5
6CA
330
23
100
AcDbEntity
 67
     1
  8
0
  6
Continuous
 62
     7
370
    25
100
AcDbCircle
 10
-15.047701464
 20
74.8069960652
 30
0.0
 40
7.061233455084824
100
AcDbArc
 50
172.8091905966
 51
187.1908094034
  0
ARC
  5
6CB
330
23
100
AcDbEntity
 67
     1
  8
0
  6
Continuous
 62
     7
370
    25
100
AcDbCircle
 10
-27.7086551046
 20
76.5011973197
 30
0.0
 40
5.713016783985103
100
AcDbArc
 50
351.8458342663
 51
359.6316204237
  0
ARC
  5
6CC
330
23
100
AcDbEntity
 67
     1
  8
0
  6
Continuous
 62
     7
370
    25
100
AcDbCircle
 10
-27.7086551046
 20
-76.5011973197
 30
0.0
 40
5.713016783984174
100
AcDbArc
 50
0.3683795763
 51
8.1541657337
  0
ARC
  5
6CD
330
23
100
AcDbEntity
 67
     1
  8
0
  6
Continuous
 62
     7
370
    25
100
AcDbCircle
 10
-15.047701464
 20
-74.8069960652
 30
0.0
 40
7.06123345508479
100
AcDbArc
 50
172.8091905966
 51
187.1908094034
  0
ARC
  5
6CE
330
23
100
AcDbEntity
 67
     1
  8
0
  6
Continuous
 62
     7
370
    25
100
AcDbCircle
 10
-21.195256524
 20
72.0152340298
 30
0.0
 40
4.830975708988171
100
AcDbArc
 50
169.4576824175
 51
190.5423175825
  0
ARC
  5
6CF
330
23
100
AcDbEntity
 67
     1
  8
0
  6
Continuous
 62
     7
370
    25
100
AcDbCircle
 10
-21.195256524
 20
-72.0152340298
 30
0.0
 40
4.83097570898853
100
AcDbArc
 50
169.4576824175
 51
190.5423175825
  0
ARC
  5
6D0
330
23
100
AcDbEntity
 67
     1
  8
0
  6
Continuous
 62
     7
370
    25
100
AcDbCircle
 10
-25.1307961873
 20
98.5686127979
 30
0.0
 40
3.135214294371022
100
AcDbArc
 50
359.3954747942
 51
11.0203094198
  0
ARC
  5
6D1
330
23
100
AcDbEntity
 67
     1
  8
0
  6
Continuous
 62
     7
370
    25
100
AcDbCircle
 10
-25.1307961873
 20
-98.5686127979
 30
0.0
 40
3.135214294371015
100
AcDbArc
 50
348.9796905802
 51
0.6045252058
  0
ARC
  5
6D2
330
23
100
AcDbEntity
 67
     1
  8
0
  6
Continuous
 62
     7
370
    25
100
AcDbCircle
 10
-23.8205060513
 20
-71.0833830459
 30
0.0
 40
2.794464219751509
100
AcDbArc
 50
180.9835412082
 51
220.5236007592
  0
ARC
  5
6D3
330
23
100
AcDbEntity
 67
     1
  8
0
  6
Continuous
 62
     7
370
    25
100
AcDbCircle
 10
-23.8205060513
 20
71.0833830459
 30
0.0
 40
2.794464219751497
100
AcDbArc
 50
139.4763992409
 51
179.0164587918
  0
ARC
  5
6D4
330
23
100
AcDbEntity
 67
     1
  8
0
  6
Continuous
 62
     7
370
    25
100
AcDbCircle
 10
-23.8205060513
 20
90.6122865303
 30
0.0
 40
2.79446421975154
100
AcDbArc
 50
139.4763992409
 51
179.0164587918
  0
ARC
  5
6D5
330
23
100
AcDbEntity
 67
     1
  8
0
  6
Continuous
 62
     7
370
    25
100
AcDbCircle
 10
-23.8205060513
 20
-90.6122865303
 30
0.0
 40
2.794464219751512
100
AcDbArc
 50
180.9835412082
 51
220.5236007592
  0
ARC
  5
6D6
330
23
100
AcDbEntity
 67
     1
  8
0
  6
Continuous
 62
     7
370
    25
100
AcDbCircle
 10
-20.9284843917
 20
-99.534047283
 30
0.0
 40
1.182991698272424
100
AcDbArc
 50
161.9718877138
 51
198.0281122862
  0
ARC
  5
6D7
330
23
100
AcDbEntity
 67
     1
  8
0
  6
Continuous
 62
     7
370
    25
100
AcDbCircle
 10
-20.9284843917
 20
99.534047283
 30
0.0
 40
1.18299169827238
100
AcDbArc
 50
161.9718877138
 51
198.0281122862
  0
ARC
  5
6D8
330
23
100
AcDbEntity
 67
     1
  8
0
  6
Continuous
 62
     7
370
    25
100
AcDbCircle
 10
-25.1659368604
 20
-92.7941375143
 30
0.0
 40
0.8605177904074248
100
AcDbArc
 50
154.8201706753
 51
205.1798293246
  0
ARC
  5
6D9
330
23
100
AcDbEntity
 67
     1
  8
0
  6
Continuous
 62
     7
370
    25
100
AcDbCircle
 10
-25.1659368604
 20
92.7941375143
 30
0.0
 40
0.8605177904074626
100
AcDbArc
 50
154.8201706754
 51
205.1798293247
  0
ARC
  5
6DA
330
23
100
AcDbEntity
 67
     1
  8
0
  6
Continuous
 62
     7
370
    25
100
AcDbCircle
 10
-21.6145585551
 20
-90.6602540378
 30
0.0
 40
5.000000000000004
100
AcDbArc
 50
180.0
 51
210.0
  0
ARC
  5
6DB
330
23
100
AcDbEntity
 67
     1
  8
0
  6
Continuous
 62
     7
370
    25
100
AcDbCircle
 10
-21.6145585551
 20
90.6602540378
 30
0.0
 40
4.999999999999964
100
AcDbArc
 50
150.0
 51
180.0
  0
ARC
  5
6DC
330
23
100
AcDbEntity
 67
     1
  8
0
  6
Continuous
 62
     7
370
    25
100
AcDbCircle
 10
-48.2145585551
 20
-17.8023516187
 30
0.0
 40
0.5000000000000355
100
AcDbArc
 50
0.0
 51
63.4438719881
  0
ARC
  5
6DD
330
23
100
AcDbEntity
 67
     1
  8
0
  6
Continuous
 62
     7
370
    25
100
AcDbCircle
 10
-55.0145585551
 20
-17.8023516187
 30
0.0
 40
0.5000000000000292
100
AcDbArc
 50
116.5561280119
 51
180.0
  0
ARC
  5
6DE
330
23
100
AcDbEntity
 67
     1
  8
0
  6
Continuous
 62
     7
370
    25
100
AcDbCircle
 10
-33.3299663845
 20
-39.7810888066
 30
0.0
 40
4.170666976527676
100
AcDbArc
 50
89.8212771686
 51
97.1495687092
  0
ARC
  5
6DF
330
23
100
AcDbEntity
 67
     1
  8
0
  6
Continuous
 62
     7
370
    25
100
AcDbCircle
 10
-33.3175108299
 20
59.5290330853
 30
0.0
 40
1.016363456569834
100
AcDbArc
 50
89.9687695473
 51
121.5322730791
  0
VIEWPORT
  5
6E2
330
23
100
AcDbEntity
 67
     1
  8
0
100
AcDbViewport
 10
0.0
 20
0.0
 30
0.0
 40
205.6
 41
156.0
 68
     1
 69
     1
 12
0.0
 22
37.9645585551
 13
0.0
 23
0.0
 14
10.0
 24
10.0
 15
10.0
 25
10.0
 16
0.0
 26
0.0
 36
1.0
 17
0.0
 27
0.0
 37
0.0
 42
50.0
 43
0.0
 44
0.0
 45
109.446
 50
0.0
 51
0.0
 72
   100
 90
   557152
  1

281
     0
 71
     1
 74
     0
110
0.0
120
0.0
130
0.0
111
1.0
121
0.0
131
0.0
112
0.0
122
1.0
132
0.0
 79
     0
146
0.0
  0
ENDSEC
  0
SECTION
  2
OBJECTS
  0
DICTIONARY
  5
C
330
0
100
AcDbDictionary
281
     1
  3
ACAD_GROUP
350
D
  3
ACAD_LAYOUT
350
1A
  3
ACAD_MLINESTYLE
350
17
  3
ACAD_PLOTSETTINGS
350
19
  3
ACAD_PLOTSTYLENAME
350
E
  3
ACAD_SCALELIST
350
47
  0
DICTIONARY
  5
D
102
{ACAD_REACTORS
330
C
102
}
330
C
100
AcDbDictionary
281
     1
  0
DICTIONARY
  5
1A
102
{ACAD_REACTORS
330
C
102
}
330
C
100
AcDbDictionary
281
     1
  3
_Back
350
1E
  3
_Left
350
26
  3
Model
350
22
  0
DICTIONARY
  5
17
102
{ACAD_REACTORS
330
C
102
}
330
C
100
AcDbDictionary
281
     1
  3
Standard
350
18
  0
DICTIONARY
  5
19
102
{ACAD_REACTORS
330
C
102
}
330
C
100
AcDbDictionary
281
     1
  0
ACDBDICTIONARYWDFLT
  5
E
102
{ACAD_REACTORS
330
C
102
}
330
C
100
AcDbDictionary
281
     1
  3
Normal
350
F
100
AcDbDictionaryWithDefault
340
F
  0
DICTIONARY
  5
47
102
{ACAD_REACTORS
330
C
102
}
330
C
100
AcDbDictionary
281
     1
  3
A0
350
48
  3
A1
350
49
  3
A2
350
4A
  3
A3
350
4B
  3
A4
350
4C
  3
A5
350
4D
  3
A6
350
4E
  3
A7
350
4F
  3
A8
350
50
  3
A9
350
51
  3
B0
350
52
  3
B1
350
53
  3
B2
350
54
  3
B3
350
55
  3
B4
350
56
  3
B5
350
57
  3
B6
350
58
  3
B7
350
59
  3
B8
350
5A
  3
B9
350
5B
  3
C0
350
5C
  3
C1
350
5D
  3
C2
350
5E
  3
C3
350
5F
  3
C4
350
60
  3
C5
350
61
  3
C6
350
62
  3
C7
350
63
  3
C8
350
64
  3
C9
350
65
  3
D0
350
66
  3
D1
350
67
  3
D2
350
68
  0
LAYOUT
  5
1E
102
{ACAD_REACTORS
330
1A
102
}
330
1A
100
AcDbPlotSettings
  1

  2
none_device
  4
ISO_A4_(210.00_x_297.00_MM)
  6

 40
7.5
 41
20.0
 42
7.5
 43
20.0
 44
210.0
 45
297.0
 46
0.0
 47
0.0
 48
0.0
 49
0.0
140
0.0
141
0.0
142
1.0
143
1.0256410256
 70
   688
 72
     1
 73
     1
 74
     1
  7

 75
     0
147
0.975
148
70.0
149
100.0
100
AcDbLayout
  1
_Back
 70
     1
 71
     1
 10
-90.5128205128
 20
-107.6923076923
 11
214.1025641026
 21
107.6923076923
 12
0.0
 22
0.0
 32
0.0
 14
1.0000000000E+20
 24
1.0000000000E+20
 34
1.0000000000E+20
 15
-1.0000000000E+20
 25
-1.0000000000E+20
 35
-1.0000000000E+20
146
0.0
 13
0.0
 23
0.0
 33
0.0
 16
1.0
 26
0.0
 36
0.0
 17
0.0
 27
1.0
 37
0.0
 76
     0
330
1B
331
6E0
  0
LAYOUT
  5
26
102
{ACAD_REACTORS
330
1A
102
}
330
1A
100
AcDbPlotSettings
  1

  2
none_device
  4
ANSI_A_(11.00_x_8.50_Inches)
  6

 40
6.35
 41
19.05
 42
6.35000508
 43
19.05000254
 44
279.4
 45
215.9
 46
133.34999746
 47
13.8912509894
 48
0.0
 49
0.0
140
0.0
141
0.0
142
0.0777857143
143
1.0
 70
   672
 72
     0
 73
     0
 74
     1
  7

 75
     0
147
0.0652376505
148
1778.0
149
398.4102127017
100
AcDbLayout
  1
_Left
 70
     1
 71
     2
 10
0.0
 20
0.0
 11
0.0
 21
0.0
 12
0.0
 22
0.0
 32
0.0
 14
-70.0
 24
-15.6854414449
 34
0.0
 15
70.0
 25
91.6145585551
 35
0.0
146
0.0
 13
0.0
 23
0.0
 33
0.0
 16
1.0
 26
0.0
 36
0.0
 17
0.0
 27
1.0
 37
0.0
 76
     0
330
23
331
6E2
  0
LAYOUT
  5
22
102
{ACAD_REACTORS
330
1A
102
}
330
1A
100
AcDbPlotSettings
  1

  2
none_device
  4
Letter_(8.50_x_11.00_Inches)
  6

 40
6.35
 41
6.35
 42
6.35000508
 43
6.35000508
 44
215.9
 45
279.4
 46
0.0
 47
0.0
 48
0.0
 49
0.0
140
0.0
141
0.0
142
1.0
143
1.0
 70
  1712
 72
     1
 73
     0
 74
     0
  7

 75
     0
147
1.0
148
0.0
149
0.0
100
AcDbLayout
  1
Model
 70
     1
 71
     0
 10
0.0
 20
0.0
 11
420.0
 21
297.0
 12
0.0
 22
0.0
 32
0.0
 14
-70.0
 24
-15.6854414449
 34
0.0
 15
70.0
 25
91.6145585551
 35
0.0
146
0.0
 13
0.0
 23
0.0
 33
0.0
 16
1.0
 26
0.0
 36
0.0
 17
0.0
 27
1.0
 37
0.0
 76
     0
330
1F
331
29
  0
MLINESTYLE
  5
18
102
{ACAD_REACTORS
330
17
102
}
330
17
100
AcDbMlineStyle
  2
Standard
 70
     0
  3

 62
   256
 51
90.0
 52
90.0
 71
     2
 49
0.5
 62
   256
  6
BYLAYER
 49
-0.5
 62
   256
  6
BYLAYER
  0
ACDBPLACEHOLDER
  5
F
102
{ACAD_REACTORS
330
E
102
}
330
E
  0
SCALE
  5
48
102
{ACAD_REACTORS
330
47
102
}
330
47
100
AcDbScale
 70
     0
300
1:1
140
1.0
141
1.0
290
     1
  0
SCALE
  5
49
102
{ACAD_REACTORS
330
47
102
}
330
47
100
AcDbScale
 70
     0
300
1:2
140
1.0
141
2.0
290
     0
  0
SCALE
  5
4A
102
{ACAD_REACTORS
330
47
102
}
330
47
100
AcDbScale
 70
     0
300
1:4
140
1.0
141
4.0
290
     0
  0
SCALE
  5
4B
102
{ACAD_REACTORS
330
47
102
}
330
47
100
AcDbScale
 70
     0
300
1:5
140
1.0
141
5.0
290
     0
  0
SCALE
  5
4C
102
{ACAD_REACTORS
330
47
102
}
330
47
100
AcDbScale
 70
     0
300
1:8
140
1.0
141
8.0
290
     0
  0
SCALE
  5
4D
102
{ACAD_REACTORS
330
47
102
}
330
47
100
AcDbScale
 70
     0
300
1:10
140
1.0
141
10.0
290
     0
  0
SCALE
  5
4E
102
{ACAD_REACTORS
330
47
102
}
330
47
100
AcDbScale
 70
     0
300
1:16
140
1.0
141
16.0
290
     0
  0
SCALE
  5
4F
102
{ACAD_REACTORS
330
47
102
}
330
47
100
AcDbScale
 70
     0
300
1:20
140
1.0
141
20.0
290
     0
  0
SCALE
  5
50
102
{ACAD_REACTORS
330
47
102
}
330
47
100
AcDbScale
 70
     0
300
1:30
140
1.0
141
30.0
290
     0
  0
SCALE
  5
51
102
{ACAD_REACTORS
330
47
102
}
330
47
100
AcDbScale
 70
     0
300
1:40
140
1.0
141
40.0
290
     0
  0
SCALE
  5
52
102
{ACAD_REACTORS
330
47
102
}
330
47
100
AcDbScale
 70
     0
300
1:50
140
1.0
141
50.0
290
     0
  0
SCALE
  5
53
102
{ACAD_REACTORS
330
47
102
}
330
47
100
AcDbScale
 70
     0
300
1:100
140
1.0
141
100.0
290
     0
  0
SCALE
  5
54
102
{ACAD_REACTORS
330
47
102
}
330
47
100
AcDbScale
 70
     0
300
2:1
140
2.0
141
1.0
290
     0
  0
SCALE
  5
55
102
{ACAD_REACTORS
330
47
102
}
330
47
100
AcDbScale
 70
     0
300
4:1
140
4.0
141
1.0
290
     0
  0
SCALE
  5
56
102
{ACAD_REACTORS
330
47
102
}
330
47
100
AcDbScale
 70
     0
300
8:1
140
8.0
141
1.0
290
     0
  0
SCALE
  5
57
102
{ACAD_REACTORS
330
47
102
}
330
47
100
AcDbScale
 70
     0
300
10:1
140
10.0
141
1.0
290
     0
  0
SCALE
  5
58
102
{ACAD_REACTORS
330
47
102
}
330
47
100
AcDbScale
 70
     0
300
100:1
140
100.0
141
1.0
290
     0
  0
SCALE
  5
59
102
{ACAD_REACTORS
330
47
102
}
330
47
100
AcDbScale
 70
     0
300
1/128" = 1'-0"
140
0.0078125
141
12.0
290
     0
  0
SCALE
  5
5A
102
{ACAD_REACTORS
330
47
102
}
330
47
100
AcDbScale
 70
     0
300
1/64" = 1'-0"
140
0.015625
141
12.0
290
     0
  0
SCALE
  5
5B
102
{ACAD_REACTORS
330
47
102
}
330
47
100
AcDbScale
 70
     0
300
1/32" = 1'-0"
140
0.03125
141
12.0
290
     0
  0
SCALE
  5
5C
102
{ACAD_REACTORS
330
47
102
}
330
47
100
AcDbScale
 70
     0
300
1/16" = 1'-0"
140
0.0625
141
12.0
290
     0
  0
SCALE
  5
5D
102
{ACAD_REACTORS
330
47
102
}
330
47
100
AcDbScale
 70
     0
300
3/32" = 1'-0"
140
0.09375
141
12.0
290
     0
  0
SCALE
  5
5E
102
{ACAD_REACTORS
330
47
102
}
330
47
100
AcDbScale
 70
     0
300
1/8" = 1'-0"
140
0.125
141
12.0
290
     0
  0
SCALE
  5
5F
102
{ACAD_REACTORS
330
47
102
}
330
47
100
AcDbScale
 70
     0
300
3/16" = 1'-0"
140
0.1875
141
12.0
290
     0
  0
SCALE
  5
60
102
{ACAD_REACTORS
330
47
102
}
330
47
100
AcDbScale
 70
     0
300
1/4" = 1'-0"
140
0.25
141
12.0
290
     0
  0
SCALE
  5
61
102
{ACAD_REACTORS
330
47
102
}
330
47
100
AcDbScale
 70
     0
300
3/8" = 1'-0"
140
0.375
141
12.0
290
     0
  0
SCALE
  5
62
102
{ACAD_REACTORS
330
47
102
}
330
47
100
AcDbScale
 70
     0
300
1/2" = 1'-0"
140
0.5
141
12.0
290
     0
  0
SCALE
  5
63
102
{ACAD_REACTORS
330
47
102
}
330
47
100
AcDbScale
 70
     0
300
3/4" = 1'-0"
140
0.75
141
12.0
290
     0
  0
SCALE
  5
64
102
{ACAD_REACTORS
330
47
102
}
330
47
100
AcDbScale
 70
     0
300
1" = 1'-0"
140
1.0
141
12.0
290
     0
  0
SCALE
  5
65
102
{ACAD_REACTORS
330
47
102
}
330
47
100
AcDbScale
 70
     0
300
1-1/2" = 1'-0"
140
1.5
141
12.0
290
     0
  0
SCALE
  5
66
102
{ACAD_REACTORS
330
47
102
}
330
47
100
AcDbScale
 70
     0
300
3" = 1'-0"
140
3.0
141
12.0
290
     0
  0
SCALE
  5
67
102
{ACAD_REACTORS
330
47
102
}
330
47
100
AcDbScale
 70
     0
300
6" = 1'-0"
140
6.0
141
12.0
290
     0
  0
SCALE
  5
68
102
{ACAD_REACTORS
330
47
102
}
330
47
100
AcDbScale
 70
     0
300
1'-0" = 1'-0"
140
12.0
141
12.0
290
     0
  0
ENDSEC
  0
EOF
